Song name
# A B C D E F G H I J K L M N O P Q R S T U V W X Y Z

Panda - Tanto tab

Toka:Panda
Rola:Tanto(Tack no. 2)
Album:Arroz Con Leche
Transcrita por:WichoPunk

Afinacion Estandar

INTRO
Gtr. 1
e|-----|
b|-----|
g|-----|
d|-2-4-|
a|-2-4-|
E|-0-2-|x1

Gtr.1 
e|---------------------|
b|---------------------|
g|-4444----------------|
d|-4444-2222-6666-4444-|
a|-2222-2222-6666-4444-|
E|------0000-4444-2222-|x2

Gtr.2
e|----------------------------------------------------------------|
b|---(7)-5-4-------4-5-4-2---2----(7)-5-4-------4-5-4-2---2-4-2---|
g|-4---------6-4-6---------4----4---------6-4-6---------4-------4-|
d|----------------------------------------------------------------|
a|----------------------------------------------------------------|
E|----------------------------------------------------------------|x1

VERSO
Gtr.1
e|-----------------|
b|---0---0---0-----|
g|-----------------|
d|-4---4---4---2-4-|
a|-2---2---2---2-4-|
E|-------------0-2-|x4

"Despues de todo..."(Ambas gtrs.)
e|---------------------|
b|---------------------|
g|-4444----------------|
d|-4444-2222-6666-4444-|
a|-2222-2222-6666-4444-|
E|------0000-4444-2222-|x2

PRE-CORO
"y esta vez..."(Ambas gtrs.)
e|-----------------------------|
b|---------------0---0---0---0-|
g|-----------------------------|
d|-22222-44444-4---4---4---4---|
a|-22222-44444-2---2---2---2---|
E|-00000-22222-----------------|x2

CORO
"Ohuo Ohuo..."(Ambas gtrs.)
e|---------------------|
b|---------------------|
g|------6666-4444-6666-|
d|-4444-6666-4444-6666-|
a|-4444-4444-2222-4444-|
E|-2222----------------|x2

INTRO 

VERSO

CORO

INTERLUDE
Gtr.1
e|-------------|
b|-------------|
g|-44----------|
d|-44-22-66-44-|
a|-22-22-66-44-|
E|----00-44-22-|x2

Gtr.2
e|------------------------------------------------------------|
b|---7-5-4-------4-5-4-2---2----7-5-4-------4-5-4-2---2-4-2---|
g|-4-------6-4-6---------4----4-------6-4-6---------4-------4-|
d|------------------------------------------------------------|
a|------------------------------------------------------------|
E|------------------------------------------------------------|x1

PRE-Coro

CORO

CORO Sube de tono 2:45
e|---------------------|
b|---------------------|
g|------8888-6666-8888-|
d|-6666-8888-6666-8888-|
a|-6666-6666-4444-6666-|
E|-4444----------------|x2

Outro
e|----------------------|
b|----------------------|
g|----------------------|
d|-6~-5~-3~-8~-3~-5~-6~-|
a|-6~-5~-3~-6~-3~-5~-6~-|
E|-4~-3~-1~-6~-1~-3~-4~-|

   G# G  F  D# F  G  G#

Termina en: G#

e-mail:pndblink182@hotmail.com
Tap to rate this tab
# A B C D E F G H I J K L M N O P Q R S T U V W X Y Z