Guitaretab - guitar tabs
Song name
# A B C D E F G H I J K L M N O P Q R S T U V W X Y Z

Panda - Porque Todavia Podemos Deciruna Vez Mas tab

Intro y Verso
e |-------------------------------------------------------------|
B |---------0---------------0---------------0-4-0--------0-2-0--|
G |-------4----4---4------4---4---4------4------------4--------|
D |-----2--------2------2--------2------2------------2----------|
A |-----------------------------------0------------0------------|
E |---0---------------4-----------------------------------------|
[ Tab from: http://www.guitaretab.com/p/panda/70201.html ]
PRE-chorus
e |-------------------------------------------------------------------------|
B |----------5----------------5-----------------5-----------------5---------|
G |------6-----6----------6-----6-----------6-----6-----------6-----6-------|
D |----6---6-----6------7---7-----7-------6---6-----6-------7---6-----7-----|
A |--4-------------4--------------------4-------------4---------------------|
E |-------------------5-------------5---------------------5-------------5---|

e ----------------------------------------0---|
B -----------5-----------------4----------2---|
G -------6-----6-----------4-----4--------2---|
D -----6---6-----6-------4---4-----4------2---|
A ---4-------------4---2-------------2----0---|
E ----------------------------------------0---|

Chorus (rasgueo)
E |------0-------0-------0-------0------|
B |------0-------0-------0-------0------|
G |------4-------4-------4-------4------|
D |------2-------2-------2-------2------|
A |------0-------x-------4-------2------|
E |------0-------2-------x-------0------|
Related for Porque Todavia Podemos Deciruna Vez Mas tab