Guitaretab - guitar tabs
Song name
# A B C D E F G H I J K L M N O P Q R S T U V W X Y Z

Panda - So Violento So Macabro tab

La verdad es q so la primeras canciones q he subido. soy picoliux y ya subido rolas de 
esta rola esta muy es del album amantes sunt amentes. no la he sacado toda pero sirve 
lo que llevo.
Tunning: D#G#C#F#A#D#

El intro

|-----8---7-----8---7-------8---7-----8---7---|
|---------------------------------------------|
|-------9---9-----9-----------9---9-----9-----|
|-10----------7-------7-10----------7-------7-|
|---------------------------------------------|
|---------------------------------------------|

Riff
Guitarra 1
|----------------------------------|
|----------------------------------|
|-5555555599999999-----------------|
|-55555555999999997777777733333333-|x2
|-33333333777777777777777733333333-|
|-----------------5555555511111111-|

Guitarra 2
|-8-7-8-9-8--8-12-8-12-8-12-8--10-12-10-12-10-12-10-|
|---------------------------------------------------|
|---------------------------------------------------|
|---------------------------------------------------|x2
|---------------------------------------------------|
|---------------------------------------------------|

Estos son los acordes del verso, chequen la canción para sacar el ritmo
B5                    D#5
Te voy a hablar con la verdad
G#5               E5
Me cuesta tanto imaginar
B5                     D#5    G#5                     E5
Me cuesta tanto aceptar que el “tu y yo” ya no se va a usar
 B5       D#5   G#5         E5    B5            D#5   E5
Y aprendo una vez más, las cosas que realmente amas te apuñalan
F#5
la espalda

Riff 1
   B5             D#5
Y sabes de lo que soy capaz
       G#5                     E5
Tengo un complejo muy crudo y psicópata
          B5            D#5
Te quiero para mi, sola para mi
         G#5                   E5
Que no ves que conmigo es puro frenesí

Break
|----------------------------------|
|----------------------------------|
|---------55555--------------------|
|-22222---55555---22222---77777333-|
|-22222-2-33333-2-22222-2-77777333-|
|-00000-0-------0-00000-0-55555111-|

Verso 2
B                       G#m
 Estoy elaborando un plan
                 B
Para hacerte enojar
                          G#m
Quiero que te quede claro que si no es conmigo con nadie vas a
F#
estar
              G#m                   F#
Confía en mi, amor….lo tengo calculado
             D#             F#
Si algo sale mal, pido perdón de ante-
[ Tab from: http://www.guitaretab.com/p/panda/79700.html ]
Riff 1
B5            D#5
mano, pues así soy yo
          G#5                   E5
Te tengo amor obsesivo, un poco tétrico
          B5              D#5
Te invito a sentir malestar sin fin
        G#5              E5
Dame tu mano, pongámosle fin al sufrir

Puente

Guitarra 1
|-----|
|-----|
|-----|
|-2---|
|-2---|
|-0---|

Guitarra 2
|------------------------------------|
|------------------------------------|
|-12-12-12-9-9-9---------------------|
|----------------9-9-9-9-9-9-9-9-9-9-| x2
|------------------------------------|
|------------------------------------|
pm...................................
4 veces las dos guitarras
|-------------------|
|-------------------|
|-------------------|x8
|-9--55-99-55-2-2---|
|-9--55-99-55-2-2---|
|-7--33-77-33-0-0---|
pm            . .

Guitarra 2 despues de 4 de arriba (con delay)
|-//18v-18v-18v-18v-18v-18v\117v-17v\15v-15v-14v-13v-18v-18v\17v-17v-|
|--------------------------------------------------------------------|
|--------------------------------------------------------------------|
|--------------------------------------------------------------------|
|--------------------------------------------------------------------|
|--------------------------------------------------------------------|

|-14/24-(24)b(26)b(28)b(29)r(28)-24pb28b(29)r(27)b(29)r(26)-|
|-----------------------------------------------------------|
|-----------------------------------------------------------|
|-----------------------------------------------------------|
|-----------------------------------------------------------|
|-----------------------------------------------------------|

|---------0---------------0-----------------0--------1-----------3---|
|-----1-----1---1-----------0---0------1------1---1--1-----------3---|
|---0---0-----0-------0-------0-----------2-----2----2-----------0---|
|-------------------0---0------------2---------------3-----------0---|
|-3-------------------------------0------------------3-----------2---|
|-----------------0----------------------------------1-----------3---|
Y    sabes    de   lo que soy capaz Tengo un complejo muy crudo y psicópata

Riff
         B5             D#5
No lo hagó por mi, sino por los dos
        G#5             E5
Será macabro peró salvará nuestro amor
          B5                D#5
Me tienes que creer, tienes que confiar
        G#5                     E5     F#5
El sentimiento es profundo y también real

Guitarra 1
|----|
|----|
|-5--|
|-5--|
|-3--|
|----|

Guitarra 2
|---------------|
|---------------|
|-9-Palanca-r-1-|
|---------------|
|---------------|
|---------------|

A veces me da hueva esta rola, pero sta chida para uno.
Related for So Violento So Macabro tab
Advertisement will be closed in 10 seconds