Guitaretab - guitar tabs
Song name
# A B C D E F G H I J K L M N O P Q R S T U V W X Y Z

Panda - La Estrategia Perdida tab

este tab esta 100 % correcto sin ningun error asi k sakenla 
nim _forever7

Guitarra 1 
                                                               (x2)
Eb|-----------------------------------19-19-18-18-16-16-16--------------|
Bb|-16-16-16-17-17-17-14-14-14-16-16-----------------------16-16--14(x8)|  
Gb|---------------------------------------------------------------------|
Db|---------------------------------------------------------------------|
Ab|---------------------------------------------------------------------|
Eb|---------------------------------------------------------------------|

Eb|----------------------------19-19-18-18-16-16--16-17--17-18--18-19h21-19|
Bb|16-16-16-17-17-17-14-14-14-16----------------17-----18-----19-----------|
Gb|------------------------------------------------------------------------|
Db|------------------------------------------------------------------------|
Ab|------------------------------------------------------------------------|
Eb|------------------------------------------------------------------------|


Guitarra 2                                        (x2)
Eb|--------------------------------------------------|
Bb|--------------------------------------------------|
Gb|----------------------------6-6-6-6--9-9-9-9------|  
Db|-9-9-9-9--8-8-8-8--6-6-6-6--6-6-6-6--9-9-9-9------|
Ab|-9-9-9-9--9-9-9-9--6-6-6-6--4-4-4-4--7-7-7-7------|
Eb|-7-7-7-7--6-6-6-6--4-4-4-4------------------------|



Guitarra 1 

                                                  (x2)
Eb|----------------15---------------1515-14-15v-----|
Bb|-14-14-14-14-14----14-14-14-14-14-----------------|
Gb|--------------------------------------------------|
Db|--------------------------------------------------|
Ab|--------------------------------------------------|
Eb|--------------------------------------------------|

Eb|----------------15---------------15/1818-17-17-15v-|
Bb|-14-14-14-14-14----14-14-14-14-14-------------------|
Gb|----------------------------------------------------|
Db|----------------------------------------------------|
Ab|----------------------------------------------------|
Eb|----------------------------------------------------|
Precoro
Ambas Guitarras

Eb|----------------------|
Bb|----------------------|
Gb|----------------------|
Db|-9-9-9-9--8-7---------|
Ab|-9-9-9-9--8-7---------|
Eb|-7-7-7-7--6-5---------|

                                    
eb|------------------------------------------------------------------|
Bb|------------------------------------------------------------------|
Gb|------------------------------------------------------------------| 
Db|-9-9-9-9--11/13--9-9-9-9-13/11--9-9-9-9-11/13--9-9-9-9--13-13-13--|
Ab|-9-9-9-9--11/13--9-9-9-9-13/11--9-9-9-9-11/13--9-9-9-9--13-13-13--|
Eb|-7-7-7-7---9/11--7-7-7-7-11/9---7-7-7-7--9/11--7-7-7-7--11-11-11--|


Coro
AMBAS GUITARRAS
                                                   (x2)
Eb|---------------------------------------------------|
Bb|---------------------------------------------------|
Gb|----------8-8-8-8----------------------------------|  
Db|-9-9-9-9--8-8-8-8--6-6-6--6--2-2-2-2--4-4-4-4------|
Ab|-9-9-9-9--6-6-6-6--6-6-6--6--2-2-2-2--4-4-4-4------|
Eb|-7-7-7-7-----------4-4-4--4--0-0-0-0--2-2-2-2------|

Intro (x1)

GUITARRA 2

Eb|---------------------------|
Bb|---------------------------|                  
Gb|---------------------------|
Db|---------------------------|x2
Ab|------------4v---6v--4v---|
Eb|--7v-6v4v----7v---------|

Guitarra 2 
Eb|----------------15---------------1515-14-15v-----|
Bb|-14-14-14-14-14----14-14-14-14-14-----------------|
Gb|--------------------------------------------------|
Db|--------------------------------------------------|
Ab|--------------------------------------------------|
Eb|--------------------------------------------------|

[ Tab from: http://www.guitaretab.com/p/panda/81016.html ]
Eb|----------------15---------------15/1818-17-17-15v-|
Bb|-14-14-14-14-14----14-14-14-14-14-------------------|
Gb|----------------------------------------------------|
Db|----------------------------------------------------|
Ab|----------------------------------------------------|
Eb|----------------------------------------------------|


GUITARRA 2 
Eb|-----------------------------------------------|
Bb|-----------------------------------------------|
Gb|-----------------------------------------------|
Db|-----------------------------------------------|
Ab|-14(X8)16(8X)---------------------------------|
Eb|-----------------------------------------------|
 
GUITARRA 1 
Eb|-----------------------------------------------|
Bb|-----------------------------------------------|
Gb|-----------------------------------------------|
Db|-9-9-9-9-7-9-9-9-11-9-------------------------|
Ab|-----------------------------------------------|
Eb|-----------------------------------------------|


Ambas Guitarras 


Eb|----------------------|
Bb|----------------------|
Gb|----------------------|
Db|-9-9-9-9--8-7---------|
Ab|-9-9-9-9--8-7---------|
Eb|-7-7-7-7--6-5---------|


GUITARRA 2 

Eb|-----------------------------------------------|
Bb|-----------------------------------------------|
Gb|-----------------------------------------------|
Db|-----------------------------------------------|
Ab|-14(X8)16(8X)---------------------------------|
Eb|-----------------------------------------------|

GUITARRA 1 
Eb|-----------------------------------------------|
Bb|-----------------------------------------------|
Gb|-----------------------------------------------|
Db|-7-9-9-9-911-11-13-11-9-----------------------|
Ab|-----------------------------------------------|
Eb|-----------------------------------------------|

Ambas Guitarras                     (x2)
eb|------------------------------------------------------------------|
Bb|------------------------------------------------------------------|
Gb|------------------------------------------------------------------| 
Db|-9-9-9-9--11/13--9-9-9-9-13/11--9-9-9-9-11/13--9-9-9-9--13-13-13--|
Ab|-9-9-9-9--11/13--9-9-9-9-13/11--9-9-9-9-11/13--9-9-9-9--13-13-13--|
Eb|-7-7-7-7---9/11--7-7-7-7-11/9---7-7-7-7--9/11--7-7-7-7--11-11-11--|
Luego sigue el coro

Coro 
AMBAS GUITARRAS

                                                   (x2)
Eb|---------------------------------------------------|
Bb|---------------------------------------------------|
Gb|----------8-8-8-8----------------------------------|  
Db|-9-9-9-9--8-8-8-8--6-6-6--6--2-2-2-2--4-4-4-4------|
Ab|-9-9-9-9--6-6-6-6--6-6-6--6--2-2-2-2--4-4-4-4------|
Eb|-7-7-7-7-----------4-4-4--4--0-0-0-0--2-2-2-2------|



Coro 
Guitarra 1 
Eb|-----------------------------------19-19-18-18-16-16-16--------------|
Bb|-16-16-16-17-17-17-14-14-14-16-16-----------------------16-16--14(x8)|  
Gb|---------------------------------------------------------------------|
Db|---------------------------------------------------------------------|
Ab|---------------------------------------------------------------------|
Eb|---------------------------------------------------------------------|
                                                                  (x2)

Eb|----------------------------19-19-18-18-16-16--16-17--17-18--18-19h21-19|
Bb|16-16-16-17-17-17-14-14-14-16----------------17-----18-----19-----------|
Gb|------------------------------------------------------------------------|
Db|------------------------------------------------------------------------|
Ab|------------------------------------------------------------------------|
Eb|------------------------------------------------------------------------|



Guitarra 2                                        (x2)                      
Eb|--------------------------------------------------| 
Bb|--------------------------------------------------|
Gb|----------------------------6-6-6-6--9-9-9-9------|  
Db|-9-9-9-9--8-8-8-8--6-6-6-6--6-6-6-6--9-9-9-9------|
Ab|-9-9-9-9--9-9-9-9--6-6-6-6--4-4-4-4--7-7-7-7------|
Eb|-7-7-7-7--6-6-6-6--4-4-4-4------------------------|

Related for La Estrategia Perdida tab