Guitaretab - guitar tabs
Song name
# A B C D E F G H I J K L M N O P Q R S T U V W X Y Z

Panda - Pathetica tab

-------------------------------------------------------------------------------
			     PATHETICA- PANDA
-------------------------------------------------------------------------------
Tabbed by: JOSE PRESAS
Email: CABALLO.TIGRES22@HOTMAIL.COM

Tuning:

EL INTRO VA ASI,
e|------------------------------------------------------------------- \
B|------------------------------------------------------------------- \
G|------------------------12-12-11-11-11----------------------- ----- \
D|----------------------------------------14-14-14-12-12-------  ---- \
A|----13-13-13-14-14-14----------------------------------------   --- \
E|-------------------------------------------------------------    -- \
                                                                     \ esto
                                                                     /  x2
e|------------------------------------------------------------------ \     /
B|------------------------------------------------------------------ \    /
G|------------------------12-12-12s14-14-14---12-12-12--11-11------- \   /
D|------------------------------------------------------------------ \  /
A|---13-13-13-14-14-14---------------------------------------------- \ /
E|------------------------------------------------------------------ \


e|-------------------------------------------------------------|
B|---------------------------------16----------16--------------|
G|--------12--------12-------12-14-------12-14----12-14--------|
D|-------------------------------------------------------------|
A|--13-14-----13-14---13-14------------------------------------|
E|-------------------------------------------------------------|

e|-------------------------------------------------------------|
B|--16--12------14--11-----------------------------------------|
G|---------12----------12--------------------------------------|
D|-------------------------------------------------------------|
A|-------------------------------------------------------------|
E|-------------------------------------------------------------|


e|-------------------------------------------------------------|
B|---------------------------------16----------16--------------|
G|--------12--------12-------12-14-------12-14----12-14--------|
D|-------------------------------------------------------------|
A|--13-14-----13-14---13-14------------------------------------|
E|-------------------------------------------------------------|


e|-------------------------------------------------------------|
B|--12-----9--11-----------------------------------------------|
G|-----13---------8--------------------------------------------|
D|-------------------9s11~~------------------------------------|
A|-------------------------------------------------------------|
E|-------------------------------------------------------------|


e|-------------------------------------------------------------|
B|-------------------------------------------------------------|
G|--6-666666----------9999999----------------------------------|
D|--6-666666-7777777--9999999-9999999--------------------------|
A|--4-444444-7777777--7777777-9999999--------------------------|
E|-----------5555555----------7777777--------------------------|
      p.m.-----------------------------------------------------|


e|-------------------------------------------------------------|
B|-------------------------------------------------------------|
G|-----------------------------------------7--9----------------|
D|---7-7------9-9-----7-7------9-9-----11--7--9----------------|
A|---7-7------9-9-----7-7------9-9-----11--5--7----------------|
E|---5-5------7-7-----5-5------7-7-----9-----------------------|


e|------------------------------------------------------------------- \
B|------------------------------------------------------------------- \
G|------------------------12-12-11-11-11----------------------- ----- \
D|----------------------------------------14-14-14-12-12-------  ---- \
A|----13-13-13-14-14-14----------------------------------------   --- \
E|-------------------------------------------------------------    -- \
                                                                     \ esto
                                                                     /  x4
e|------------------------------------------------------------------ \     /
B|------------------------------------------------------------------ \    /
G|------------------------12-12-12s14-14-14---12-12-12--11-11------- \   /
D|------------------------------------------------------------------ \  /
A|---13-13-13-14-14-14---------------------------------------------- \ /
E|------------------------------------------------------------------ \


e|-------------------------------------------------------------|
B|-------------------------------------------------------------|
G|--6-666666----------9999999----------------------------------|
D|--6-666666-7777777--9999999-9999999--------------------------|
A|--4-444444-7777777--7777777-9999999--------------------------|
E|-----------5555555----------7777777--------------------------|
      p.m.-----------------------------------------------------|


e|-------------------------------------------------------------|
B|-------------------------------------------------------------|
G|-----------------------------------------7--9----------------|
D|---7-7------9-9-----7-7------9-9-----11--7--9----------------|
A|---7-7------9-9-----7-7------9-9-----11--5--7----------------|
E|---5-5------7-7-----5-5------7-7-----9-----------------------|

[ Tab from: http://www.guitaretab.com/p/panda/81870.html ]
e|------------------------------------------------------------------- \
B|------------------------------------------------------------------- \
G|------------------------12-12-11-11-11----------------------- ----- \
D|----------------------------------------14-14-14-12-12-------  ---- \
A|----13-13-13-14-14-14----------------------------------------   --- \
E|-------------------------------------------------------------    -- \
                                                                     \ esto
                                                                     /  x4
e|------------------------------------------------------------------ \     /
B|------------------------------------------------------------------ \    /
G|------------------------12-12-12s14-14-14---12-12-12--11-11------- \   /
D|------------------------------------------------------------------ \  /
A|---13-13-13-14-14-14---------------------------------------------- \ /
E|------------------------------------------------------------------ \

e|-------------------------------------------------------------|
B|-------------------------------------------------------------|
G|-------------------------------------------------------------|
D|---7~----9~----9~---7~---9~----------------------------------|
A|---7~----9~----9~---7~---9~----------------------------------|
E|---5~----7~---11~---5~---7~----------------------------------|


e|-------------------------------------------------------------|
B|-------------------------------------------------------------|
G|--6--8--9--8--6--8---9--11-9--8--6--8--9--8--6--8---9--11----|
D|--x--x--x--x--x-x---x--x--x--x--x--x--x--x--x--x---x--x-----|
A|--4--6--7--6--4--6---7--9--7--6--4--6--7--6--4--6---7--9-----|
E|-------------------------------------------------------------|


e|-------------------------------------------------------------|
B|-------------------------------------------------------------|
G|--11-11-11-11-11-11------------------------------------------|
D|--x--x--x--x--x--x-------------------------------------------|
A|--9--9--9--9--9--9-------------------------------------------|
E|-------------------------------------------------------------|

e|-------------------------------------------------------------|
B|-------------------------------------------------------------|
G|--6-666666----------9999999----------------------------------|
D|--6-666666-7777777--9999999-9999999--------------------------|
A|--4-444444-7777777--7777777-9999999--------------------------|
E|-----------5555555----------7777777--------------------------|
      p.m.-----------------------------------------------------|

e|-------------------------------------------------------------|
B|-------------------------------------------------------------|
G|--11-11-11-11-11-11-11---------------------------------------|
D|--x--x--x--x--x--x--x----------------------------------------|
A|--9--9--9--9--9--9--9----------------------------------------|
E|-------------------------------------------------------------|

otra vez lo del intro, :D
e|------------------------------------------------------------------- \
B|------------------------------------------------------------------- \
G|------------------------12-12-11-11-11----------------------- ----- \
D|----------------------------------------14-14-14-12-12-------  ---- \
A|----13-13-13-14-14-14----------------------------------------   --- \
E|-------------------------------------------------------------    -- \
                                                                     \ esto
                                                                     /  x2
e|------------------------------------------------------------------ \     /
B|------------------------------------------------------------------ \    /
G|------------------------12-12-12s14-14-14---12-12-12--11-11------- \   /
D|------------------------------------------------------------------ \  /
A|---13-13-13-14-14-14---------------------------------------------- \ /
E|------------------------------------------------------------------ \


e|-------------------------------------------------------------|
B|---------------------------------16----------16--------------|
G|--------12--------12-------12-14-------12-14----12-14--------|
D|-------------------------------------------------------------|
A|--13-14-----13-14---13-14------------------------------------|
E|-------------------------------------------------------------|

e|-------------------------------------------------------------|
B|--16--12------14--11-----------------------------------------|
G|---------12----------12--------------------------------------|
D|-------------------------------------------------------------|
A|-------------------------------------------------------------|
E|-------------------------------------------------------------|


e|-------------------------------------------------------------|
B|---------------------------------16----------16--------------|
G|--------12--------12-------12-14-------12-14----12-14--------|
D|-------------------------------------------------------------|
A|--13-14-----13-14---13-14------------------------------------|
E|-------------------------------------------------------------|


e|-------------------------------------------------------------|
B|--12-----9--11-----------------------------------------------|
G|-----13---------8--------------------------------------------|
D|-------------------9s11~~------------------------------------|
A|-------------------------------------------------------------|
E|-------------------------------------------------------------|


la ultima parte no me la se mucho, aver si a la proxima la pongo!
saludos,
Related for Pathetica tab