Song name
# A B C D E F G H I J K L M N O P Q R S T U V W X Y Z

Panda - Los Malaventurados No Lloran tab

intro:
      *bajo* *bass*
E [------------------------------------------------------------------------]
B [------------------------------------------------------------------------]
G [------------------------------------------------------------------------]
D [----------------------------6--4-------6--4-----------------------------]
A [-----4--2-------4--2-----7--------7-7--------7--------------------------]
E [--5--------5-5-------5--------------------------------------------------]

     *guitarra 1* *guitar 1*
E [---------------------4--------------4-----------------------------------]
B [--2------------------5--------------4-----------------------------------]
G [--2------------------4--------------4-----------------------------------]
D [--2---------------------------------------------------------------------]
A [------------------------------------------------------------------------]
E [------------------------------------------------------------------------]

    *bajo* *bass*
E [------------------------------------------------------------------------]
B [------------------------------------------------------------------------]
G [------------------------------------------------------------------------]
D [--------------------------------2--4--6-------4--2----------------------]
A [-----2--4--6------2--4--6----4-------------2--------4-------------------]
E [--4------------4--------------------------------------------------------]

   *guitarra 1* *guitar 1*
E [----------------------------0-----0-------------------------------------]
B [------------------------------2-------------4-----4---------------------]
G [--------------------------------1-------------4-------------------------]
D [------------------------------------------------4-----------------------]
A [------------------------------------------------------------------------]
E [------------------------------------------------------------------------]
____________________________________________________________________________
-Se que esta en algun lugar mejor-.-Donde no hay abuso-

      *bajo* *bass*
E [------------------------------------------------------------------------]
B [------------------------------------------------------------------------]
G [------------------------------------------------------------------------]
D [----------------------------6--4-------6--4-----------------------------]
A [-----4--2-------4--2-----7--------7-7--------7--------------------------]
E [--5--------5-5-------5--------------------------------------------------]

     *guitarra 1* *guitar 1*
E [---------------------4--------------4-----------------------------------]
B [--2------------------5--------------4-----------------------------------]
G [--2------------------4--------------4-----------------------------------]
D [--2---------------------------------------------------------------------]
A [------------------------------------------------------------------------]
E [------------------------------------------------------------------------]
_____________________________________________________________________________
-Fuera de este mundo-.-Quiero-

 *bajo* *bass*
E [------------------------------------------------------------------------]
B [------------------------------------------------------------------------]
G [------------------------------------------------------------------------]
D [--------------------------------2--4--6-------4--2----------------------]
A [-----2--4--6------2--4--6----4-------------2--------4-------------------]
E [--4------------4--------------------------------------------------------]

   *guitarra 1* *guitar 1*
E [----------------------------0-----0-------------------------------------]
B [------------------------------2-------------4-----4---------------------]
G [--------------------------------1-------------4-------------------------]
D [------------------------------------------------4-----------------------]
A [------------------------------------------------------------------------]
E [------------------------------------------------------------------------]
____________________________________________________________________________

-Encontrar el medio para yo-.-poder hablarle a ella-

     *bajo* *bass*
E [------------------------------------------------------------------------]
B [------------------------------------------------------------------------]
G [------------------------------------------------------------------------]
D [----------------------------6--4-------6--4-----------------------------]
A [-----4--2-------4--2-----7--------7-7--------7--------------------------]
E [--5--------5-5-------5--------------------------------------------------]

     *guitarra 1* *guitar 1*
E [---------------------4--------------4-----------------------------------]
B [--2------------------5--------------4-----------------------------------]
G [--2------------------4--------------4-----------------------------------]
D [--2---------------------------------------------------------------------]
A [------------------------------------------------------------------------]
E [------------------------------------------------------------------------]
_____________________________________________________________________________

-Poder decirle a ella-.

 *bajo* *bass*
E [------------------------------------------------------------------------]
B [------------------------------------------------------------------------]
G [------------------------------------------------------------------------]
D [--------------------------------2--4--6-------4--2----------------------]
A [-----2--4--6------2--4--6----4-------------2--------4-------------------]
E [--4------------4--------------------------------------------------------]

   *guitarra 1* *guitar 1*
E [----------------------------0-----0-------------------------------------]
B [------------------------------2-------------4-----4---------------------]
G [--------------------------------1-------------4-------------------------]
D [------------------------------------------------4-----------------------]
A [------------------------------------------------------------------------]
E [------------------------------------------------------------------------]
____________________________________________________________________________

-Que aqui-.-Todo esta peor-........-Que al igual que ella

   *guitarra 1 y 2*
E [------------------------------------------------------------------------]
B [------------------------------------------------------------------------]
G [--------------------------------9-9-9-9-9-9-9---------------------------]
D [--7-7-7-7-7-7-7-7---------------9-9-9-9-9-9-9---------------------------]
A [--7-7-7-7-7-7-7-7---------------7-7-7-7-7-7-7---------------------------]
E [--5-5-5-5-5-5-5-5-------------------------------------------------------]
____________________________________________________________________________
-Mi voluntad tambien murió-.     -Yo quiero platicar-

   *guitarra 1 y 2*
E [------------------------------------------------------------------------]
B [------------------------------------------------------------------------]
G [-----------------------------6-6-6-6--4-4-4-4---------------------------]
D [--6-6-6-6-6-6-6-6------------6-6-6-6--4-4-4-4---------------------------]
A [--6-6-6-6-6-6-6-6------------4-4-4-4--2-2-2-2---------------------------]
E [--4-4-4-4-4-4-4-4-------------------------------------------------------]
_____________________________________________________________________________

-Que todo sale mal-

 *guitarra 1 y 2*
E [------------------------------------------------------------------------]
B [------------------------------------------------------------------------]
G [--------------------------------9-9-9-9-9-9-9---------------------------]
D [--7-7-7-7-7-7-7-7---------------9-9-9-9-9-9-9---------------------------]
A [--7-7-7-7-7-7-7-7---------------7-7-7-7-7-7-7---------------------------]
E [--5-5-5-5-5-5-5-5-------------------------------------------------------]

   *bajo* *bass*
E [------------------------------------------------------------------------]
B [------------------------------------------------------------------------]
G [------------------------------------------------------------------------]
D [----------------------------6--4-------6--4-----------------------------]
A [-----4--2-------4--2-----7--------7-7--------7--------------------------]
E [--5--------5-5-------5--------------------------------------------------]
____________________________________________________________________________

-Que yo lo alcanzaria-.-                        -Teniendo la oportunidad-

  *guitarra 1 y 2*
E [------------------------------------------------------------------------]
B [------------------------------------------------------------------------]
G [-----------------------------6-6-6-6--4-4-4-4---------------------------]
D [--6-6-6-6-6-6-6-6------------6-6-6-6--4-4-4-4---------------------------]
A [--6-6-6-6-6-6-6-6------------4-4-4-4--2-2-2-2---------------------------]
E [--4-4-4-4-4-4-4-4-------------------------------------------------------]

*bajo* *bass*
E [------------------------------------------------------------------------]
B [------------------------------------------------------------------------]
G [------------------------------------------------------------------------]
D [--------------------------------2--4--6-------4--2----------------------]
A [-----2--4--6------2--4--6----4-------------2--------4-------------------]
E [--4------------4--------------------------------------------------------]

____________________________________________________________________________

 *bajo* *bass*
E [------------------------------------------------------------------------]
B [------------------------------------------------------------------------]
G [------------------------------------------------------------------------]
D [----------------------------6--4-------6--4-----------------------------]
A [-----4--2-------4--2-----7--------7-7--------7--------------------------]
E [--5--------5-5-------5--------------------------------------------------]

     *guitarra 1* *guitar 1*
E [---------------------4--------------4-----------------------------------]
B [--2------------------5--------------4-----------------------------------]
G [--2------------------4--------------4-----------------------------------]
D [--2---------------------------------------------------------------------]
A [------------------------------------------------------------------------]
E [------------------------------------------------------------------------]

    *bajo* *bass*
E [------------------------------------------------------------------------]
B [------------------------------------------------------------------------]
G [------------------------------------------------------------------------]
D [--------------------------------2--4--6-------4--2----------------------]
A [-----2--4--6------2--4--6----4-------------2--------4-------------------]
E [--4------------4--------------------------------------------------------]

   *guitarra 1* *guitar 1*
E [----------------------------0-----0-------------------------------------]
B [------------------------------2-------------4-----4---------------------]
G [--------------------------------1-------------4-------------------------]
D [------------------------------------------------4-----------------------]
A [------------------------------------------------------------------------]
E [------------------------------------------------------------------------]
____________________________________________________________________________
-Se que ella se siente mejor-.-Alla no hay suplicio-

*bajo* *bass*
E [------------------------------------------------------------------------]
B [------------------------------------------------------------------------]
G [------------------------------------------------------------------------]
D [----------------------------6--4-------6--4-----------------------------]
A [-----4--2-------4--2-----7--------7-7--------7--------------------------]
E [--5--------5-5-------5--------------------------------------------------]

     *guitarra 1* *guitar 1*
E [---------------------4--------------4-----------------------------------]
B [--2------------------5--------------4-----------------------------------]
G [--2------------------4--------------4-----------------------------------]
D [--2---------------------------------------------------------------------]
A [------------------------------------------------------------------------]
E [------------------------------------------------------------------------]
_____________________________________________________________________________
-Seria muy impulsivo-.

 *bajo* *bass*
E [------------------------------------------------------------------------]
B [------------------------------------------------------------------------]
G [------------------------------------------------------------------------]
D [--------------------------------2--4--6-------4--2----------------------]
A [-----2--4--6------2--4--6----4-------------2--------4-------------------]
E [--4------------4--------------------------------------------------------]

   *guitarra 1* *guitar 1*
E [----------------------------0-----0-------------------------------------]
B [------------------------------2-------------4-----4---------------------]
G [--------------------------------1-------------4-------------------------]
D [------------------------------------------------4-----------------------]
A [------------------------------------------------------------------------]
E [------------------------------------------------------------------------]
____________________________________________________________________________
-El utilizar el medio y llegar-

*bajo* *bass*
E [------------------------------------------------------------------------]
B [------------------------------------------------------------------------]
G [------------------------------------------------------------------------]
D [----------------------------6--4-------6--4-----------------------------]
A [-----4--2-------4--2-----7--------7-7--------7--------------------------]
E [--5--------5-5-------5--------------------------------------------------]

     *guitarra 1* *guitar 1*
E [---------------------4--------------4-----------------------------------]
B [--2------------------5--------------4-----------------------------------]
G [--2------------------4--------------4-----------------------------------]
D [--2---------------------------------------------------------------------]
A [------------------------------------------------------------------------]
E [------------------------------------------------------------------------]
_____________________________________________________________________________
-A lo desconocido-.-Sentirla al lado mio-

 *bajo* *bass*
E [------------------------------------------------------------------------]
B [------------------------------------------------------------------------]
G [------------------------------------------------------------------------]
D [--------------------------------2--4--6-------4--2----------------------]
A [-----2--4--6------2--4--6----4-------------2--------4-------------------]
E [--4------------4--------------------------------------------------------]

   *guitarra 1* *guitar 1*
E [----------------------------0-----0-------------------------------------]
B [------------------------------2-------------4-----4---------------------]
G [--------------------------------1-------------4-------------------------]
D [------------------------------------------------4-----------------------]
A [------------------------------------------------------------------------]
E [------------------------------------------------------------------------]
____________________________________________________________________________
-Y decir que todo esta peor-.-Que al igual que ella-

*guitarra 1 y 2*
E [------------------------------------------------------------------------]
B [------------------------------------------------------------------------]
G [--------------------------------9-9-9-9-9-9-9---------------------------]
D [--7-7-7-7-7-7-7-7---------------9-9-9-9-9-9-9---------------------------]
A [--7-7-7-7-7-7-7-7---------------7-7-7-7-7-7-7---------------------------]
E [--5-5-5-5-5-5-5-5-------------------------------------------------------]
____________________________________________________________________________
-Mi esperanza se murió-

*guitarra 1 y 2*
E [------------------------------------------------------------------------]
B [------------------------------------------------------------------------]
G [-----------------------------6-6-6-6--4-4-4-4---------------------------]
D [--6-6-6-6-6-6-6-6------------6-6-6-6--4-4-4-4---------------------------]
A [--6-6-6-6-6-6-6-6------------4-4-4-4--2-2-2-2---------------------------]
E [--4-4-4-4-4-4-4-4-------------------------------------------------------]
____________________________________________________________________________
-La quiero abrazar-.-Que todo sea igual-

*guitarra 1 y 2*
E [------------------------------------------------------------------------]
B [------------------------------------------------------------------------]
G [--------------------------------9-9-9-9-9-9-9---------------------------]
D [--7-7-7-7-7-7-7-7---------------9-9-9-9-9-9-9---------------------------]
A [--7-7-7-7-7-7-7-7---------------7-7-7-7-7-7-7---------------------------]
E [--5-5-5-5-5-5-5-5-------------------------------------------------------]

   *bajo* *bass*
E [------------------------------------------------------------------------]
B [------------------------------------------------------------------------]
G [------------------------------------------------------------------------]
D [----------------------------6--4-------6--4-----------------------------]
A [-----4--2-------4--2-----7--------7-7--------7--------------------------]
E [--5--------5-5-------5--------------------------------------------------]
____________________________________________________________________________
-Mi vida ya es tan gris-.-Que el dolor jamás se marchara-

*guitarra 1 y 2*
E [------------------------------------------------------------------------]
B [------------------------------------------------------------------------]
G [-----------------------------6-6-6-6--4-4-4-4---------------------------]
D [--6-6-6-6-6-6-6-6------------6-6-6-6--4-4-4-4---------------------------]
A [--6-6-6-6-6-6-6-6------------4-4-4-4--2-2-2-2---------------------------]
E [--4-4-4-4-4-4-4-4-------------------------------------------------------]

*bajo* *bass*
E [------------------------------------------------------------------------]
B [------------------------------------------------------------------------]
G [------------------------------------------------------------------------]
D [--------------------------------2--4--6-------4--2----------------------]
A [-----2--4--6------2--4--6----4-------------2--------4-------------------]
E [--4------------4--------------------------------------------------------]
____________________________________________________________________________
Me vendria bien recordar
debo yo recordar
y sentir ser mejor es mejor
no creer en el amor
asi como le hago yo.
- La deberia de odiar
por dejarme aqui
pero ella no escogio
soy un simple amante loco yo que aprendido mi leccion ...
____________________________________________________________________________

Solo
*guitarra 1*
E|-----------------------------------------------------------|
B|-----------------------------------------------------------|
G|---------------7--5-7-8--7-8-7-----------------------------|
D|--------5--6-8---------------------------------------------| x2
A|----6-8----------------------------------------------------|
E|-4---------------------------------------------------------|
_____________________________________________________________________________
-Se que esta en un lugar mejor donde no hay abuso fuera de este mundo
-Quiero encontrar el medio para yo poder hablar con ella poder decirle a ella
_____________________________________________________________________________
-Que aqui-.-Todo esta peor-...........-Que al igual que ella-

*guitarra 1 y 2*
E [------------------------------------------------------------------------]
B [------------------------------------------------------------------------]
G [--------------------------------9-9-9-9-9-9-9---------------------------]
D [--7-7-7-7-7-7-7-7---------------9-9-9-9-9-9-9---------------------------]
A [--7-7-7-7-7-7-7-7---------------7-7-7-7-7-7-7---------------------------]
E [--5-5-5-5-5-5-5-5-------------------------------------------------------]

   *bajo* *bass*
E [------------------------------------------------------------------------]
B [------------------------------------------------------------------------]
G [------------------------------------------------------------------------]
D [----------------------------6--4-------6--4-----------------------------]
A [-----4--2-------4--2-----7--------7-7--------7--------------------------]
E [--5--------5-5-------5--------------------------------------------------]
_____________________________________________________________________________
-Mi voluntad tambien murió-

*guitarra 1 y 2*
E [------------------------------------------------------------------------]
B [------------------------------------------------------------------------]
G [-----------------------------6-6-6-6--4-4-4-4---------------------------]
D [--6-6-6-6-6-6-6-6------------6-6-6-6--4-4-4-4---------------------------]
A [--6-6-6-6-6-6-6-6------------4-4-4-4--2-2-2-2---------------------------]
E [--4-4-4-4-4-4-4-4-------------------------------------------------------]

*bajo* *bass*
E [------------------------------------------------------------------------]
B [------------------------------------------------------------------------]
G [------------------------------------------------------------------------]
D [--------------------------------2--4--6-------4--2----------------------]
A [-----2--4--6------2--4--6----4-------------2--------4-------------------]
E [--4------------4--------------------------------------------------------]
____________________________________________________________________________
-La quiero saludar-.-A su oido suspirar-

*guitarra 1 y 2*
E [------------------------------------------------------------------------]
B [------------------------------------------------------------------------]
G [--------------------------------9-9-9-9-9-9-9---------------------------]
D [--7-7-7-7-7-7-7-7---------------9-9-9-9-9-9-9---------------------------]
A [--7-7-7-7-7-7-7-7---------------7-7-7-7-7-7-7---------------------------]
E [--5-5-5-5-5-5-5-5-------------------------------------------------------]

   *bajo* *bass*
E [------------------------------------------------------------------------]
B [------------------------------------------------------------------------]
G [------------------------------------------------------------------------]
D [----------------------------6--4-------6--4-----------------------------]
A [-----4--2-------4--2-----7--------7-7--------7--------------------------]
E [--5--------5-5-------5--------------------------------------------------]
____________________________________________________________________________
-Por mientras yo la extraño mi vida desvanece mas-

*guitarra 1 y 2*
E [------------------------------------------------------------------------]
B [------------------------------------------------------------------------]
G [-----------------------------6-6-6-6--4-4-4-4---------------------------]
D [--6-6-6-6-6-6-6-6------------6-6-6-6--4-4-4-4---------------------------]
A [--6-6-6-6-6-6-6-6------------4-4-4-4--2-2-2-2---------------------------]
E [--4-4-4-4-4-4-4-4-------------------------------------------------------]

*bajo* *bass*
E [------------------------------------------------------------------------]
B [------------------------------------------------------------------------]
G [------------------------------------------------------------------------]
D [--------------------------------2--4--6-------4--2----------------------]
A [-----2--4--6------2--4--6----4-------------2--------4-------------------]
E [--4------------4--------------------------------------------------------]
Tap to rate this tab
 
# A B C D E F G H I J K L M N O P Q R S T U V W X Y Z