Guitaretab - guitar tabs
Song name
# A B C D E F G H I J K L M N O P Q R S T U V W X Y Z

Panda - El Infame Estar Y No Estar tab

ACORDES:> Sib - Fa - Re#m - Solm

INTRO1: EFECTO RARO

INTRO2 DE GUITARRA:

Solm
-------------------------------------------|
-------------------------------------------|
-------------------------------------------|
-------------------------------------------|
-10-11-10-11---10-11-13-11-8-10-11-13-11---|
------------13-----------------------------|

Sib                  Re#m
--------------------------------------------|
--------------------------------------------|
--------------------------------------------|
--------------------------------------------|
-10-11-10-11---10-11-13-11-10-11--13s15-13--|
------------13------------------------------| (X 2 VECES)

MIENTRAS UNA GUITARRA REQUINTEA, LA OTRA GUITARRA DISTORSIONADA,
KE ES EL RITMO, TOCA LO SIGUIENTE:

Solm - Sib - Re#m x 2 veces

VERSO:
(OJO: Chequen el ritmo de los versos, pq los tiempos son
cortados y van con palm mute)

Solm        Sib        Re#m        Solm
Piensas que, me he portado muy casual,
             Sib         Re#m      Solm
Pero no es así, no es mi personalidad,
              Sib          Re#m      Solm
Pero que crees, le hago al investigador,
           Sib  Re#m     Sib
Para así poder, estudiarte.

CORO:
(ENTRA DISTORSIÓN)

Sib    Fa         Re#m      Solm         Sib
    Estoy muy convencido que es la solución,
            Fa             Re#m - Solm
El ser intenso con discreción,
Sib    Fa         Re#m      Solm         Sib
    Estoy muy convencido que esto te castigará,
   Fa         Re#m          Solm        Sib - Re#m
Estar y no estar igual a intenso o casual.

VERSO:
(VUELVE EL MISMO RITMITO)

Solm     Sib      Re#m       Solm
Al caminar hacia donde tu estás
             Sib         Re#m      Solm
Te persigo y tu nunca cuenta te darás
                 Sib         Re#m          Solm
Me siento un criminal sin haber hecho algo mal
              Sib      Re#m           Sib
Pero prometo que al final te va a gustar

CORO:
(ENTRA DISTORSIÓN)
[ Tab from: http://www.guitaretab.com/p/panda/89698.html ]
Sib    Fa         Re#m      Solm         Sib
    Estoy muy convencido que es la solución,
            Fa             Re#m - Solm
El ser intenso con discreción,
Sib    Fa         Re#m      Solm         Sib
    Estoy muy convencido que esto te castigará,
   Fa         Re#m          Solm        Sib - Re#m
Estar y no estar igual a intenso o casual.


INTER DE GUITARRA:

Solm
-------------------------------------------|
-------------------------------------------|
-------------------------------------------|
-------------------------------------------|
-10-11-10-11---10-11-13-11-8-10-11-13-11---|
------------13-----------------------------|

Sib                  Re#m
--------------------------------------------|
--------------------------------------------|
--------------------------------------------|
--------------------------------------------|
-10-11-10-11---10-11-13-11-10-11--13s15-13--|
------------13------------------------------| (X 4 VECES)

OJO GUITARRA RITMO: (QUE EN ESTA PARTE DEL INTER DE GUITARRA,
                     LAS PRIMERAS 2 VUELTAS DEL REQUINTO, SE
                     USA EL RITMO DE LOS VERSOS, YA HASTA DONDE
                     EMPIEZA LA 3ERA. VUELTA DEL RQUINTO, ENTRA
                     LA DISTORSIÓN.)

REDOBLES DE BATERIA (un rasgueo con distor por cada acorde)

Re#m
(Primer redoble)-Cuenta los tiempos así: 1, 2, 3, 4, 5, 6, 7, 8,

Fa
(Segundo Redoble) 1, 2, 3, 4, 5, 6, 7, 8,

Solm
(Tercer redoble) 1, 2, 3, 4,

Sib
(Cuarto redoble) 1, 2, 3, 4,

Fa
(Quinto redoble) 1, 2, 3, 4,

(Re#m) Este va con slide

CORO:
(CON DISTORSIÓN)

Sib    Fa         Re#m      Solm         Sib
    Estoy muy convencido que es la solución,
            Fa             Re#m - Solm
El ser intenso con discreción,
Sib    Fa         Re#m      Solm         Sib
    Estoy muy convencido que esto te castigará,
   Fa         Re#m          Solm        Sib
Estar y no estar igual a intenso o casual.

Sib - Fa - Re#m - Solm
Sib - Fa - Re#m - Solm
Re#m (GUARDA SILENCIO DISTORSIÓN)

(ESTOS 2 ACORDES SON CON GUITARRA LIMPIA)
Re#m - Sib
Related for El Infame Estar Y No Estar tab
×
Best way to learn
"El Infame Estar Y No Estar"