Song name
# A B C D E F G H I J K L M N O P Q R S T U V W X Y Z

Panda - Lo Que No Fue Nunca Sera tab

song: Lo Que No Fue No Será
band: Panda
Album: [Demo] Gato

Esta algo fácil, solo kem e dio hueva ponerle todos los tiempos a todo,
así ke lo úniko ke cuesta trabajo es escuchar su duración.
Esta tab se la dedico a Karen M. S.

Intro:
|---||---||---||---|
|---||---||---||---|
|-6-||---||---||---|
|-6-||-8-||-4-||-6-|
|-4-||-8-||-4-||-6-|
|---||-6-||-2-||-4-|

Verso 1
|---------|-------|-------|----|
|---------|-------|-------|----|
|---------|-------|-----8-|----|
|-11p10-8-|-8p6-4-|-4p3-8-|4-6-|
|-11p10-8-|-8p6-4-|-4p3-6-|4-6-|
|-9-p8--6-|-6p4-2-|-2p1- -|2-4-|

          Verso 2
|bajeo|
|-9-6-2-4-|

|----|----|----|----|
|----|----|----|----|
|----|-33-|----|----|
|-33-|-33-|-44-|-66-|
|-33-|-11-|-44-|-66-|
|-11-|----|-22-|-44-|

Otro
|----|-|----|-|----|-------|
|----|-|----|-|----|-------|
|-66-|5|----|-|----|-------|
|-66-|5|-88-|6|-44-|-6\8/6-|
|-44-|3|-88-|6|-44-|-6\8/6-|
|----|-|-66-|4|-22-|-4\6/4-|

Fin
|-------|
|-------|
|-6-----|
|-6-4-6-|
|-4-4-6-|
|---2-4-|

Es todo, chida no? Karen espero ke nos sucedan cosas chidas en la uni, gracias por tu 
y ya olvidate de problemas del pasado.

tenken_kun@hotmail.com
Erick Rosales Albo

Aguascalientes Ags. México.
Tap to rate this tab
 
# A B C D E F G H I J K L M N O P Q R S T U V W X Y Z