Song name
# A B C D E F G H I J K L M N O P Q R S T U V W X Y Z

Panda - Jeht Kacken tab

Panda - Jeht Kacken

Intro (ohne Kapo)

E-------------------------------------------|
B-----------------------7-7-5---------------|
G-------5-6-8-9-9-8-6-4-------8-6-8-8-6-5---|
D-6-6-8-----------------------------------8-|
A-------------------------------------------|
E-------------------------------------------|	


E-------------------------------------------|
B-----------------------7-7-5-----8888888---|
G-------5-6-8-9-9-8-6-4-------8-6-----------|
D-6-6-8-------------------------------------|
A-------------------------------------------|
E-------------------------------------------|	

Strophe
 G			    D
Ejal watt ick mach ihr seid eh jemein
C	   D
 Wozu noch freundlich sein?
	  G
Nehm voll Rücksicht uff alle
    D
Bin immer die Liebe
	C			D
Und 'n Arschtritt is allet watt ick dafür kriege
am	       D    hm            em
 Ihr seid so verlogen und so Ich-bezogen
    am
Und dit nicht mal heimlich
   D
Is euch dit nicht peinlich?


Refrain:
     G				 Dis5
Jeht kacken, ihr alle dies nicht ehrlich mit mir meinen
     B			 F
Jeht kacken, lasst ma in Ruhe, haut rein!
     G			     Dis5
Jeht kacken, keene Lust mehr uff nett sein
     B				       F		 G
Jeht kacken, lasst ma in Ruhe, zu euch fällt ma nix mehr ein

Strophe
G		      D
Hab versucht mit euch auszukommen
c	         D
Hab's einfach so hinjenommen
    G			D
Ihr könnt nüscht andret als verletzen,
C		    D
 Euch nich in andre reinversetzen
am		  D
 Nehmt euch allet wie ihr dit wollt
hm		  em
 Tut aber nie dit watt a sollt
     am
Aber nicht mehr mit mir
	        D
Sprech ick halt nich, mit sowatt wie dir!

Refrain: 2x

wieder Intro

Jeht kacken, jeht kacken, jeht kackeeeeeeeeennnn

Tabbed by S&M
Tap to rate this tab
# A B C D E F G H I J K L M N O P Q R S T U V W X Y Z