Song name
# A B C D E F G H I J K L M N O P Q R S T U V W X Y Z

Panic At The Disco - Shes A Handsome Woman Live tab

here i how i think you play the song from the live version. i cant hear all of the exact 
because the album hasnt been released but heres what i hear so far.

br-bend to 1 note higher and release
b-bend to 1 note higher
*-already tabbed-repeat what is tabbed
\/-look down for tab

Guitar 1-Drop D
Guitar 2-Drop D

Intro x2
\/
guitar 1
e|-----------------|
B|-----------------|
G|-----------------|
D|-----1-0---------|
A|-0-3-----3-2-1-0-|
D|-----------------|

Intro pt 2
*guitar 1 plays intro x2
\/
guitar 2 x2
e|-----------------|
B|-----------------|
G|--2~~~~~~~~~~~~~-|
D|--2~~~~~~~~~~~~~-|
A|--0~~~~~~~~~~~~~-|
D|-5---------------|


Verse (repeat as necessary)
\/
guitar 1
e|---------------------|
B|-6-6-5-x1-5-x1--3----|
G|-5-5-5-x2-5-x2---2---|
D|------------------0--|
A|---------------------|
D|---------------------|

*Intro x2

*Verse (repeat as necessary)

Prechorus
\/
guitar 1
e|--------------------------------------------|
B|-------------------9-10-10-10-10------------|
G|-7-7br-5---5-9-7-5---------------7-7br-5----|
D|---------7-------------------------------7--|
A|--------------------------------------------|
D|--------------------------------------------|

Guitar 2
e|-------------------------------------|
B|-------------------------------------|
G|-------------------------------------|
D|-77777777-55555555-77777777-55555555-|
A|-77777777-55555555-77777777-55555555-|
D|-77777777-55555555-77777777-55555555-|
pm ........ ........ ........ ........


Chorus x4
\/
Guitar 2
e|------------------|
B|------------------|
G|-------------7777-|
D|7-7-7777-5-5-7777-|
A|7-7-7777-5-5-5555-|
D|7-7-7777-5-5------|

*Intro pt 2 x2

*Verse (repeat as necessary)

*Prechorus

*Chorus x4

*Intro pt 2 (repeat as nesessary)


sorry if that was confusing.
Tap to rate this tab
# A B C D E F G H I J K L M N O P Q R S T U V W X Y Z