Song name
# A B C D E F G H I J K L M N O P Q R S T U V W X Y Z

Panic At The Disco - Were So Starving tab

Help us improve GuitareTab! Take a short survey!
We're So Starving- Panic At The Disco
Intro


|---------------1---------------------1------|
|--1---------1-----------1---------1---------|
|-------3-2-3------2----------3-2-3------2---|
|--------------------------------------------|
|--------------------------------------------|
|--------------------------------------------|

|-----3-4-1-------------1--------------------|
|---1-------4-3------------------------------|
|-1-------------3-2--------------------------|
|-------------------3------------------------|
|--------------------------------------------|
|--------------------------------------------|


|---------------1---------------------1------|
|--1---------1-----------1---------1---------|
|-------3-2-3------2----------3-2-3------2---|
|--------------------------------------------|
|--------------------------------------------|
|--------------------------------------------|

|-----3-4-1-------------1--------------------|
|---1-------4-3------------------------------|
|-1-------------3-2--------------------------|
|-------------------3------------------------|
|--------------------------------------------|
|--------------------------------------------|

This isn't completely perfect, I'm pretty sure I'm missing a note or two. But besides 
I'm pretty sure it is perfect.
Panic At The Disco forever :D.
Related for Were So Starving tab