Song name
# A B C D E F G H I J K L M N O P Q R S T U V W X Y Z

Panic At The Disco - Time To Dance Live Acoustic tab

----------------------------------------------------------------------------
             Time To Dance Live [Acoustic] - Panic At The Disco
----------------------------------------------------------------------------

Tabbed by: ChangeofTimesx
Email: coolchyld12@hotmail.com
Tuning: 1 full step down [DGCFAD]

tab based on this video: http://www.youtube.com/watch?v=gmlhRQbc_iI

~ - let ring

Intro 
[you can sing the keyboard part here if you'd like xD]

D|--5----5----6------------|--5----1----3----------------|
A|--6----5----6------------|--5----1----3----------------|
F|--7----5----7------------|--5----2----3----------------|
C|--7----7----8------------|--7----3----5----------------|
G|--5----7----8------------|--7----3----5----------------|
D|-------5----6------------|--5----1----3----------------|

Verse
"Well she's not bleeding on the ballroom floor..."

D|--6----3----6----3--------|--1-------------------------|
A|--6----3----6----3--------|--1-------------------------|
F|--7----3----7----3--------|--2-------------------------| x2
C|--8----5----8----5--------|--3-------------------------|
G|--8----5----8----5--------|--3-------------------------|
D|--6----3----6----3--------|--1-------------------------|

Pre-Chorus
"You sure you're sure"

D|--5----6-----------------|-----------------------------|
A|--5----6-----------------|-----------------------------|
F|--5----7-----------------|-----------------------------|
C|--7----8-----------------|-----------------------------|
G|--7----8-----------------|-----------------------------|
D|--5----6-----------------|-----------------------------|

Chorus
"Have some composure. Where is your posture? Oh no no... 
You're pulling the trigger, pulling the trigger all wrong."

D|--5----5----6------------|--5----1----3----------------|
A|--6----5----6------------|--5----1----3----------------|
F|--7----5----7------------|--5----2----3----------------| x2
C|--7----7----8------------|--7----3----5----------------|
G|--5----7----8------------|--7----3----5----------------|
D|-------5----6------------|--5----1----3----------------|

Post-Chorus

here he goes from a G to an A, and to the A# really fast, 
listen to the song you'll know what i'm talking about. 
do it if you want, i do. =P but if not.. follow this.

"Give me envy, give me malice, give me attention. 
When I say shotgun, you say wedding. Shotgun, wedding. 
They believe it from the tears and the teeth right down to the blood 
at her feet. Boys will be boys hiding in estrogen 
and wearing aubergine..." [idk why he skips half of the other verse lol]

D|--6----3----6----3--------|--1-------------------------|
A|--6----3----6----3--------|--1-------------------------|
F|--7----3----7----3--------|--2-------------------------| x2
C|--8----5----8----5--------|--3-------------------------|
G|--8----5----8----5--------|--3-------------------------|
D|--6----3----6----3--------|--1-------------------------|

Pre-Chorus

on the word 'dreams', switch to playing this.
"...dreams. You sure you're sure."

D|--5----6-----------------|-----------------------------|
A|--5----6-----------------|-----------------------------|
F|--5----7-----------------|-----------------------------|
C|--7----8-----------------|-----------------------------|
G|--7----8-----------------|-----------------------------|
D|--5----6-----------------|-----------------------------|

Chorus
"Have some composure. Where is your posture? Oh no no... 
You're pulling the trigger, pulling the trigger all wrong."

D|--5----5----6------------|--5----1----3----------------|
A|--6----5----6------------|--5----1----3----------------|
F|--7----5----7------------|--5----2----3----------------| 
C|--7----7----8------------|--7----3----5----------------|
G|--5----7----8------------|--7----3----5----------------|
D|-------5----6------------|--5----1----3----------------|

- TO FINISH - 

this second part of the chorus, he plays something a little bit different.

"Have some composure. Where is your posture? Oh no no... 
You're pulling the trigger, pulling the trigger all wrong."

D|--5----5----6------------|--5----1----3----5~----------|
A|--6----5----6------------|--5----1----3----6~----------|
F|--7----5----7------------|--5----2----3----7~----------| 
C|--7----7----8------------|--7----3----5----7~----------|
G|--5----7----8------------|--7----3----5----5~----------|
D|-------5----6------------|--5----1----3----------------|

-End- 

Tap to rate this tab
 
# A B C D E F G H I J K L M N O P Q R S T U V W X Y Z