Song name
# A B C D E F G H I J K L M N O P Q R S T U V W X Y Z

Panic At The Disco - When The Day Met The Night tab

-------------------------------------------------------------------------------
	       WHEN THE DAY MET THE NIGHT - Panic At The Disco
-------------------------------------------------------------------------------
Tabbed by:gbubguitar107
Email:gbellerby10@gmail.com

Tuning:DGCFAD



This is the Solo in the song that is played on trumpet. I don't know how to
 tab rhythm yet, so You will have to figure that out. First tab... Thanks.

d|-16---------16--16--14--12--14-----------12--14b16r14-12-14b16r14-12-12----|
A|------14-17-----------------------12--14--------------------------------14-|
F|---------------------------------------------------------------------------|
C|---------------------------------------------------------------------------|
G|---------------------------------------------------------------------------|
D|---------------------------------------------------------------------------|

d|---------14b16-14b16-14b16-14--------12------------------------------------|
A|-12-14---------------------------14------12--10--9-------------------------|
F|---------------------------------------------------------------------------|
C|---------------------------------------------------------------------------|
G|---------------------------------------------------------------------------|
D|---------------------------------------------------------------------------|



| /  slide up
| \  slide down
| h  hammer-on
| p  pull-off
| ~  vibrato
| +  harmonic
| x  Mute note
===============================================================================
Tap to rate this tab
 
# A B C D E F G H I J K L M N O P Q R S T U V W X Y Z