Song name
# A B C D E F G H I J K L M N O P Q R S T U V W X Y Z

Panic At The Disco - Build God Then Well Talk tab

Panic at the disco , Build god then we'll talk
tabs by, Morgan :D


e----------------------------------------------------------|
b--------------2-------------------------------------------|
d-4-0-0---0-0----4-4-5-4-4-2-2-2-----------0-2-------------|
g-------4------------------------4-4-4-4-4-----2-2-2-4-4-4-|
a----------------------------------------------------------|
e----------------------------------------------------------|


e----------------------------------------------------------|
b----------------------------------------------------------|
d-4-5-4-2-2-4-2-0-0-2-0------------------------------------|
g-----------------------4----------------------------------|
a----------------------------------------------------------|
e----------------------------------------------------------|
Tap to rate this tab
 
# A B C D E F G H I J K L M N O P Q R S T U V W X Y Z