Panic At The Disco - Were So Starving tab

E|--------------------------------|
B|--------------------------------|
G|---------------10---------------|2x
D|--10--8-7-8-10----7-------------|
A|--------------------------------|
E|--------------------------------|

E|--------------------------------|
B|--------------------------------|
G|------12-13-10-8-7-----10-------|
D|---10-------------8-7-----------|
A|-11------------------8----------|
E|--------------------------------|

E|---------------------------------------------------------------------------|
B|---------------------------------------------------------------------------|
G|---------------10-------------------10---------12-13-10-8-7----------------|2x
D|--10--8-7-8-10----7----10--8-7-8-10----7-----10-------------8--------------|
A|-------------------------------------------11------------------------------|
E|---------------------------------------------------------------------------|

E|----------------------------------------------------|
B|----------------------------------------------------|
G|----------------------------------------------------|4x
D|2-2-2-2-2-2-2-2-2-2-6-6-6-6-6-6-6-6-8-8-8-8-8-8-8-8-|
A|2-2-2-2-2-2-2-2-2-2-6-6-6-6-6-6-6-6-8-8-8-8-8-8-8-8-|
E|1-1-1-1-1-1-1-1-1-1-4-4-4-4-4-4-4-4-6-6-6-6-6-6-6-6-|

E|--------------------------------|
B|--------------------------------|
G|---------------10---------------|2x
D|--10--8-7-8-10----7-------------|
A|--------------------------------|
E|--------------------------------|

E|--------------------------------|
B|--------------------------------|
G|------12-13-10-8-7-----10-------|
D|---10-------------8-7-----------|
A|-11------------------8----------|
E|--------------------------------|

E|---------------------------------------------------------------------------|
B|---------------------------------------------------------------------------|
G|---------------10-------------------10---------12-13-10-8-7----------------|
D|--10--8-7-8-10----7----10--8-7-8-10----7-----10-------------8--------------|
A|-------------------------------------------11------------------------------|
E|---------------------------------------------------------------------------|
Tap to rate this tab
 
# A B C D E F G H I J K L M N O P Q R S T U V W X Y Z