Panic At The Disco - The Ballad Of Mona Lisa tab

-------------------------------------------------------------------------------
			     THE BALLAD OF MONA LISA - Panic! at the Disco
-------------------------------------------------------------------------------

Tuning: Standard

Palm mute where necessary!

INTRO

e|---------------------------------------------------------------------------|
B|---------------------------------------------------------------------------|
G|---------------------------------------------------------------------------|
D|-777777777777777----777777777777-222---------------------------------------|
A|-777777777777777-x3-777777777777-222---------------------------------------|
E|-555555555555555----555555555555-000---------------------------------------|

e|---------------------------------------------------------------------------|
B|---------------------------------------------------------------------------|
G|---------------------------------------------------------------------------|
D|-777777777777777----777777777777-555---------------------------------------|
A|-777777777777777-x3-777777777777-555---------------------------------------|
E|-555555555555555----555555555555-333---------------------------------------|

PRE-CHORUS

e|---------------------------------------------------------------------------|
B|---------------------------------------------------------------------------|
G|----------55555555-----------------------------55555555--------------------|
D|-33333333-55555555-22222222-7777-5555-33333333-55555555-22222222-22222222--|
A|-33333333-33333333-22222222-7777-5555-33333333-33333333-22222222-22222222--|
E|-11111111----------00000000-5555-3333-11111111----------00000000-00000000--|

CHORUS

e|---------------------------------------------------------------------------|
B|---------------------------------------------------------------------------|
G|-----------------------------5555------------------------------------------|
D|-33333333-7777-5555-33333333-5555-2222-------------------------------------|
A|-33333333-7777-5555-33333333-3333-2222-------------------------------------|
E|-11111111-5555-3333-11111111------0000-------------------------------------|

POST-CHORUS

e|---------------------------------------------------------------------------|
B|---------------------------------------------------------------------------|
G|---------------------------------------------------------------------------|
D|-777777777777-222----------------------------------------------------------|
A|-777777777777-222----------------------------------------------------------|
E|-555555555555-000----------------------------------------------------------|

VERSE

e|---------------------------------------------------------------------------|
B|---------------------------------------------------------------------------|
G|---------------------------------------------------------------------------|
D|-777777777777----7777777-777777777777--------------------------------------|
A|-777777777777-x3-7777777-xxxxxxxxxxxx--------------------------------------|
E|-555555555555----5555555-555555555555--------------------------------------|

BRIDGE

e|---------------------------------------------------------------------------|
B|---------------------------------------------------------------------------|
G|-------5~------------------------------------------------------------------|
D|-7~-3~-5~-2~----3~---------------------------------------------------------|
A|-7~-3~-3~-2~-x2-3~---------------------------------------------------------|
E|-5~-1~----0~----1~---------------------------------------------------------|

PLAY CHORUS AGAIN THEN,

e|---------------------------------------------------------------------------|
B|---------------------------------------------------------------------------|
G|-----------------------------5-5-5-5---------------------------------------|
D|-33333333-7777-5555-33333333-5-5-5-5-2-2-2-2-7~----------------------------|
A|-33333333-7777-5555-33333333-3-3-3-3-2-2-2-2-7~----------------------------|
E|-11111111-5555-3333-11111111---------0-0-0-0-5~----------------------------|

SONG STRUCTURE:

INTRO
PRE-CHORUS
CHORUS
POST-CHORUS
VERSE
PRE-CHORUS
CHORUS
BRIDGE
CHORUS
FINAL CHORUS

************************************

| /   slide up
| \   slide down
| h   hammer-on
| p   pull-off
| ~   vibrato
| +   harmonic
| x   Mute note
| b   Bend
| pb  Pre-bend
| br  Bend release
| pbr Pre-bend release
| brb Bend release bend

************************************
Tap to rate this tab
 
# A B C D E F G H I J K L M N O P Q R S T U V W X Y Z