Song name
# A B C D E F G H I J K L M N O P Q R S T U V W X Y Z

Panic At The Disco - Oh Glory tab

This is Oh Glory(Demo) By Panic at the disco off of their newest album vices and virtues

Enjoy!


Lead Guitar intro (0:00) (Not To Sure about this part but its not that big of a part in the song)
e|----------------------------------------------------------------------------|
B|----------------------------------------------------------------------------|
G|----------------------------------------------------------------------------|
D|----------------------------------------------------------------------------|
A|--2-2-2-2-2-2-2-2-----------------------------------------------------------|
E|----------------------------------------------------------------------------|

synth-keyboard thing during verse
e|------------------------------------------------------------------------------|
B|--7-7-7-7-7-7-9-10-9-7-5(x2)-10-10-10-10-9-9-9-9(x4)--------------------------|
G|------------------------------------------------------------------------------|
D|------------------------------------------------------------------------------|
A|------------------------------------------------------------------------------|
E|------------------------------------------------------------------------------|

Synth pre-chorus
e|-----------------------------------------------------------------------------|
B|--7-7-7-7-5-5-5-5-7-7-7-7/10-10-10-10(x2)------------------------------------|
G|-----------------------------------------------------------------------------|
D|-----------------------------------------------------------------------------|
A|-----------------------------------------------------------------------------|
E|-----------------------------------------------------------------------------|

guitar pre-chorus
 e|---------------------------------------------------------------------------|
B|----------------------------------------------------------------------------|
G|----6-----------------------------------------------------------------------|
D|----6(x16)------------------------------------------------------------------|
A|----4-----------------------------------------------------------------------|
E|----------------------------------------------------------------------------|

Guitar chorus
 e|-----------------------------------------------------------------------------|
B|------------------------------------------------------------------------------|
G|----------------7-------------------------------------------------------------|
D|---4-----7------7(x6)--2------------------------------------------------------|
A|---4(x4)--7-(x4)--5-----2(x2)-------------------------------------------------|
E|---2-----5------------0-------------------------------------------------------|

synth after chorus
e|----------------------------------------------------------------------------|
B|--7-------------------------------------------------------------------------|
G|---6--9--4--7-6-4-2---6-9-4--7-6-4-2----------------------------------------|
D|--------------------4----------------4--------------------------------------|
A|----------------------------------------------------------------------------|
E|----------------------------------------------------------------------------|

b4 chorus guitar mini-solo
e|----------------------------------------------------------------------------|
B|-------7--9-10--9h10p9------------------------------------------------------|
G|-----9-----------------9h11p9-----------------------------------------------|
D|----------------------------------------------------------------------------|
A|----------------------------------------------------------------------------|
E|----------------------------------------------------------------------------|
Tap to rate this tab
 
# A B C D E F G H I J K L M N O P Q R S T U V W X Y Z