Song name
# A B C D E F G H I J K L M N O P Q R S T U V W X Y Z

Panic At The Disco - Memories tab

So this is my first tab, sorry if I suck. 


e|--------------------|
B|--------------------|
G|--------------------|
D|--------------------|
A|-2-4-6-7-4-6-7------|
E|--------------------|

e|--------------------|
B|--------------------|
G|--------------------|
D|--------------------|
A|-2-11-9-9-8-9-------|
E|--------------------|

e|--------------------|
B|--------------------|
G|--------------------|
D|--------------------|
A|-4-6-7-4-2-2--------|
E|--------------------|

e|--------------------|
B|--------------------|
G|--------------------|
D|--------------------|
A|-2-777-6-6-2--------|
E|-------------2------|

That's it. Comment & rate please!
Tap to rate this tab
 
# A B C D E F G H I J K L M N O P Q R S T U V W X Y Z