Song name
# A B C D E F G H I J K L M N O P Q R S T U V W X Y Z

Panic At The Disco - Memories tab

e|--------------------|
B|--------------------|
G|--------------------|
D|-----1-2---1-2------|
A|-2-4-----4----------|
E|--------------------|

e|--------------------|
B|--------------------|
G|---1----------------|
D|------4-4-2-4-------|
A|-2------------------|
E|--------------------|

e|--------------------|
B|--------------------|
G|--------------------|
D|---1-2--------------|
A|-4-----44-22--------|
E|--------------------|

e|--------------------|
B|--------------------|
G|--------------------|
D|---222-1-1----------|
A|-2---------2--------|
E|-------------2------|
Tap to rate this tab
 
# A B C D E F G H I J K L M N O P Q R S T U V W X Y Z