Song name
# A B C D E F G H I J K L M N O P Q R S T U V W X Y Z

Panic At The Disco - Memories tab

capo 2nd fret.

            
e|---------|----------------|-------------|-------------|------------------|
B|---------|----------------|-------------|-------------|------------------|
G|---------|----------------|-------------|-------------|------------------|
D|---------|-0--------------|-0-----------|--4---2--2--0|-2----------------|
A|-0--2--4-|----------2---4-|----------00-|-------------|------------2---4-|
E|---------|----------------|-------------|-------------|------------------|

e|-----------------|-------------|-----------|----------------|
B|-----------------|-------------|-----------|----------------|
G|-----------------|-------------|-----------|----------------|
D|--0--------------|---------0-0-|-0---------|----------------|
A|-------2-2-----0-|-------------|----4-4---0|----------------|
E|-----------------|-------0-----|-----------|-0--------------|
Tap to rate this tab
 
# A B C D E F G H I J K L M N O P Q R S T U V W X Y Z