Song name
# A B C D E F G H I J K L M N O P Q R S T U V W X Y Z

Panic At The Disco - Sarah Smiles tab

PANIC! AT THE DISCO
SARAH SMILES
STANDARD



CELLO TO GUITAR INTRO 0:00
e|-------------------------------------------------------------|
B|-------------------------------------------------------------|
G|-------------------------------------------------------------|
D|--0-----0----023-----3----345-----5----567-----6765543432321-|
A|-----0-----0------3-----3------5-----5------7----------------|
E|-------------------------------------------------------------|


FIRST RIFF 0:11 (WITH CELLO RIFF CONTINUED)
e|-----5~----5~---------5~----5~---------3~----3~---------5~----6~-5~---|
B|---6-----6---6------6-----6---6------3-----3---3------6-----6---------|
G|--7-----7-----7----5-----5-----5----3-----3-----3----7-----7----------|
D|----------------------------------------------------------------------|
A|----------------------------------------------------------------------|
E|----------------------------------------------------------------------|
     Dm               F                  Gm                 A





VERSE 0:22 (↓ ↓ ↓↑↓↑) x2 for every chord)
          
Dm                                   F
I was fine, just a guy, living on my own.
                        Gm
Waiting for the sky to fall.
                               A
Then you called and changed it all, Doll.

Dm                                   F
Velvet lips and the eyes to pull me in,
                         Gm
We both know you already win
                    A
Mmmm, Your Original sin.

e|--1--|--1--|--3--|-----|----------------10-------|---------------------------|
B|--3--|--1--|--3--|--2--|-----11-10p8p6-----------|---11p10--10p8-------------|
G|--2--|--2--|--3--|--2--|-------------------------|----------------10~--------|
D|--0--|--3--|--0--|--2--|-------------------------|---------------------------|
A|-----|--3--|--x--|--0--|-------------------------|---------------------------|
E|-----|-----|--3--|-----|Lick-when-he-says-"Doll"-|-Lick-after-"Original Sin"-|
   Dm     F    Gm     A

"Velvet lips and the eyes to...""
(this is a second guitar doing staccato's for each chord: listen closely)
e|-1--1--1-1--1--1--1--1-1--1--3--3--3-3--3--5--5--5-5--5-|
B|-3--3--3-3--3--1--1--1-1--1--3--3--3-3--3--5--5--5-5--5-|
G|--------------------------------------------------------|
D|--------------------------------------------------------|
A|--------------------------------------------------------|
E|--------------------------------------------------------|
     Dm            F             Gm             A




PRE-CHORUS 0:44 (↓ ↓ ↓↑↓↑) x2 for every chord)

Bb                            C
You fooled me once with your eyes now, Honey
Bb                           A
You fooled me one with your lies, and i say

e|-----|-----|-----|-----|--10Tr----12Tr----10Tr----9Tr------|
B|--3--|--1--|--3--|--2--|-----------------------------------|
G|--3--|--0--|--3--|--2--|-----------------------------------|
D|--3--|--2--|--3--|--2--|-----------------------------------|
A|--1--|--3--|--1--|--0--|-----------------------------------|
E|-----|-----|-----|-----|--Tremelo-picking.-(Note-per-chord)|
   Bb     C    Bb     A




CHORUS 0:55 (no lead)

F                          Fsus2
Sarah Smiles like Sarah doesn't care
Dm                         C     Bb
She lives in a world, so unaware..
(Bb)          A           Bb       C
Does she know; that my destiny lies with her?




POST CHORUS 1:13 (no lead)

F      A     Bb    Bb              
Sarah, Sarah Sarah Sarah, 
(Bb)F      C         Bb           Bb
Oh Sarah, Sarah, Oh Sarah are you saving me.


e|--1--|--1--|-----|-----|-----|
B|--1--|--1--|--2--|--3--|--1--|
G|--2--|--0--|--2--|--3--|--0--|
D|--3--|--3--|--2--|--3--|--2--|
A|--3--|--3--|--0--|--1--|--3--|
E|-----|-----|-----|-----|-----|
    F   Fsus2   A    Bb     C




PRE-VERSE 1:23
Behind all the trumpets, you can hear:
e|------------------------0-1-x-x-1-x-x-1-x-1-x-1-x-3-x--------------------------------------------|
B|-3-x-x-x-3-x-x-3-x-3-x-3------------------------------1-x-3-x----------------------start of verse|
G|--------------------------------------------------------------0x-00--2-x-0-x------------------↓--|
D|-----------------------------------------------------------------------------3-x-2-x-3-3-2-2-(0)-|
A|-------------------------------------------------------------------------------------------------|
E|-------------------------------------------------------------------------------------------------|




1:35
   REPEAT VERSE CHORDS (with different lyrics but same structure) and no licks!
instead; the lead does this:
e|----6~--------8~---------10~---------12~-----|
B|------5~--------10~---------11~---------14~--|
G|--7~-------10~--------12~---------14~--------|
D|---------------------------------------------| x2
A|---------------------------------------------|
E|---------------------------------------------|



  REPEAT PRE-CHORUS 1:58
Just hell big strumming



CHORUS 2 2:08(same chords but, bar & staccato)
        ↓ ↓ ↓ ↓ ↓ ↓ ↓ ↓ ↓ ↓ ↓ ↓                ↓↑↓↑↓↑↓↑
e|-------------------------------------------|-----|-----|-----|-----|
B|-10---------8---------6---------5----------|--3--|--2--|--3--|--1--|
G|-10---------10--------7---------5----------|--3--|--2--|--3--|--0--|
D|-10--(x12)--10--(x4)--7--(x12)--5--(x4)----|--3--|--2--|--3--|--2--|
A|-8----------8---------5---------3----------|--1--|--0--|--1--|--3--|
E|-------------------------------------------|-----|-----|-----|-----|
   F         Fsus2     Dm         C            Bb     A    Bb     C



  REPEAT POST-CHORUS 2:26




BRIDGE 2:37 (No lead)

Dm                      Bb
And it's killing me inside
Dm                      Bb         A
  Consuming all my time, you've left me blind
Gm                    Dm                        Gm
And when I think I'm right you shook away my pride
(Gm)               A             (single F chord going into chorus)
You cast it all aside, but I say:





OUTRO CHORUS 3:00
        ↓ ↓ ↓ ↓ ↓ ↓         ↓↑↓↑↓↑↓↑       (gradual bend)
e|-----------------------|-----|-----|-----|------|
B|--6---------5----------|--3--|--2--|--3--|--5b--|
G|--7---------5----------|--3--|--2--|--3--|--5b--|
D|--7--(x12)--5--(x4)----|--3--|--2--|--3--|--5b--|
A|--5---------3----------|--1--|--0--|--1--|--3b--|
E|-----------------------|-----|-----|-----|------|
    Dm        C            Bb     A    Bb     C




REPEAT POST-CHORUS 3:17
to finish on Dm
Tap to rate this tab
# A B C D E F G H I J K L M N O P Q R S T U V W X Y Z