Song name
# A B C D E F G H I J K L M N O P Q R S T U V W X Y Z

Panic At The Disco - Ready To Go Get Me Out Of My Mind tab

This is my first tab!:D So don't be harsh XD! The song is in standard tuning. Yes there 
are multiple ways of playing this; and i hopefully i shall cover most of them in this 
tab:)The time marks are referred from the official video on youtube.

Intro: (Play this till time given)
0:00-0:13
E------------|
A------------|
D-9-10-------|
G-----9-12---|
B------------|
E------------|

After this the guitar splits.

1 Guitar plays: (Repeat Twice)
0:13-O:28
E-33333333-55555555-1111111111111111-|
A-55555555-77777777-3333333333333333-|
D-55555555-77777777-3333333333333333-|
G-33333333-55555555-3333333333333333-|
B-33333333-55555555-3333333333333333-|
E-33333333-55555555-3333333333333333-|

2 Guitar Plays: (Repeat Twice)
0:13-0:28
E----------------1-|
A--7-5-5-7-3-3-4---|
D-5----------------|
G------------------|
B------------------|
E------------------|

Verse 1: (Play this till time given)
0:28-0:57
E------------|
A------------|
D-9-10-------|
G-----9-12---|
B------------|
E------------|

Chorus 1: (Repeat Twice)
0:57-1:10
E-33333333-55555555-1111111111111111-|
A-55555555-77777777-3333333333333333-|
D-55555555-77777777-3333333333333333-|
G-33333333-55555555-3333333333333333-|
B-33333333-55555555-3333333333333333-|
E-33333333-55555555-3333333333333333-|

Verse 2: (Play this till time given)
1:10-1:39
E------------|
A------------|
D-9-10-------|
G-----9-12---|
B------------|
E------------|

Chorus 2: (Repeat Twice)
1:39-1:54
E-33333333-55555555-1111111111111111-|
A-55555555-77777777-3333333333333333-|
D-55555555-77777777-3333333333333333-|
G-33333333-55555555-3333333333333333-|
B-33333333-55555555-3333333333333333-|
E-33333333-55555555-3333333333333333-|

Bridge: (Play this till time given)
1:54-2:08
E------------|
A------------|
D-9-10-------|
G-----9-12---|
B------------|
E------------|

2:12-2:15
E----------------------|
A----------------------|
D-12-----------12-10---|
G---12-----12-9-----12-|
B-----13-12------------|
E----------------------|

2:22-2:36    P.M - Palm Mute
E-33333333-55555555-1111111111111111-|
A-55555555-77777777-3333333333333333-|
D-55555555-77777777-3333333333333333-|
G-33333333-55555555-3333333333333333-|
B-33333333-55555555-3333333333333333-|
E-33333333-55555555-3333333333333333-|

2:36-3:22 (Play this till time given)
E-33333333-55555555-1111111111111111-|
A-55555555-77777777-3333333333333333-|
D-55555555-77777777-3333333333333333-|
G-33333333-55555555-3333333333333333-|
B-33333333-55555555-3333333333333333-|
E-33333333-55555555-3333333333333333-|

And that is it!:)
i hope you enjoy playing this awesome song!:)
Tap to rate this tab
# A B C D E F G H I J K L M N O P Q R S T U V W X Y Z