Song name
# A B C D E F G H I J K L M N O P Q R S T U V W X Y Z

Panic At The Disco - Miss Jackson tab

Title: Miss Jackson
Artist: Panic! At The Disco
Tuning: Standard. (E, A, D, G, B, e)
Email: ChelseaaJordison@hotmail.com


Hey guys!
This is my first ever tab so enjoy.
The tempo is quite fast, playing along to the song would be a good idea :)



e|--------------------------------------------------------------------------|
B|---1--1--1----------------------------------------------------------------|
G|-------------2--0---------------------------------------------------------|
D|----------------------3\5--5--5---3--0------3\5--5--5--5--5--5/3--5\7-----|
A|-----------------------------------------3--------------------------------|
E|--------------------------------------------------------------------------|

e|--------------------------------------------------------------------------|
B|---1--1--1----------------------------------------------------------------|
G|-------------2--0---------------------------------------------------------|
D|----------------------3\5--5--5---3--0------3\5--5--5--5--5--5/3--5\7-----|
A|-----------------------------------------3--------------------------------|
E|--------------------------------------------------------------------------|


i dont think its 100% correct, but its very close :)
my email is at the top, if you have any requests, corrections or queries dont hesitate 
to email me. :)
Tap to rate this tab
 
# A B C D E F G H I J K L M N O P Q R S T U V W X Y Z