Song name
# A B C D E F G H I J K L M N O P Q R S T U V W X Y Z

Panic At The Disco - Miss Jackson tab

----------------------------------
MISS JACKSON - PANIC! AT THE DISCO
----------------------------------

Tabbed by: @jaaaared
E-mail: jared3225@gmail.com

Tuning: Standard


------------
INTRO/CHORUS
------------

e|-----------------------------------------|
B|-----------------------------------------|
G|--7-7-7-7-7~~~~~~\-----------------------|  x4 
D|-----------------------------------------|
A|--5-5-5-5-5~~~~~~\-----------------------|
E|-----------------------------------------|


------------------
VERSE (PALM MUTED)
------------------
        

e|-----------------------------------------|
B|-----------------------------------------|
G|-----------------------------------------|
D|------7-------5-5-3----------------------|  x2
A|--5-5---5-----------5-3------------------|
E|-----------------------------------------|


e|--------------------------------------------|
B|--------------------------------------------|
G|--------------------------------------------|
D|------7---------5---5--6-7-8-----8---7--7-7-|
A|--5-5---5-----5----------------8---8--------|
E|--------------------------------------------|


-----------------------
PRE-CHORUS (PALM-MUTED)
-----------------------


e|--------------------------------------------|
B|--------------------------------------------|
G|--------------------------------------------|
D|--------------------------------------------|
A|--5-x8---3-x8---1-x8---3-x8-----------------|
E|--------------------------------------------|


e|--------------------------------------------|
B|--------------------------------------------|
G|--------------------------------------------|
D|--------------------------------------------|
A|--5-x8---3-x8---1-x8---0-x8-----------------|
E|--------------------------------------------|
Tap to rate this tab
# A B C D E F G H I J K L M N O P Q R S T U V W X Y Z