Song name
# A B C D E F G H I J K L M N O P Q R S T U V W X Y Z

Panic At The Disco - Miss Jackson tab

INTRO:                                                 ~~~~~~~~~~~(palm mute)~~~~~~~~~~
e|------------------------------------------------------------------------------------|
B|------------------------------------------------------------------------------------|
G|------------------------------------------------------------------------------------|
D|-12-12-12-12-12\--12-12-12-12-12\--12-12-12-12-12\----------------------------------|
A|-12-12-12-12-12\--12-12-12-12-12\--12-12-12-12-12\--8-8-8-8-8-8-8-8-7-7-7-7-7-7-7-7-|
E|-10-10-10-10-10\--10-10-10-10-10\--10-10-10-10-10\--6-6-6-6-6-6-6-6-5-5-5-5-5-5-5-5-|

VERSE:(palm mute)
e|------------------------------------------------------------------------------------|
B|------------------------------------------------------------------------------------|
G|------------------------------------------------------------------------------------|
D|------------------------------------------------------------------------------------|
A|------------------------------------------------------------------------------------|
E|--10---8---6---8------10---8---6---5-------10---8---6---8------10---8---6---5-------|

(palm mute)
e|------------------------------------------------------------------------------------|
B|------------------------------------------------------------------------------------|
G|------------------------------------------------------------------------------------|
D|------------------------------------------------------------------------------------|
A|------------------------------------------------------------------------------------|
E|--10-10-10-10-10-10-10-10---8-8-8-8-8-8-8-8---6-6-6-6-6-6-6-6---8-8-8-8-8-8-8-8-----|

(palm mute)
e|------------------------------------------------------------------------------------|
B|------------------------------------------------------------------------------------|
G|------------------------------------------------------------------------------------|
D|------------------------------------------------------------------------------------|
A|------------------------------------------------------------------------------------|
E|--10-10-10-10-10-10-10-10---8-8-8-8-8-8-8-8---6-6-6-6-6-6-6-6---5-5-5-5-5-5-5-5-----|

(don't palm mute)
e|------------------------------------------------------------------------------------|
B|------------------------------------------------------------------------------------|
G|------------------------------------------------------------------------------------|
D|------------------------------------------------------------------------------------|
A|------------------------------------------------------------------------------------|
E|-10~------8~------6~------8~-------10~------8~------6~------5~----------------------|

CHORUS:
e|-----------------------------------------------------------------------------------------------|
B|-----------------------------------------------------------------------------------------------|
G|-----------------------------------------------------------------------------------------------|
D|-12-12-12-12-12-12-12-12-12--10-10-10-10-10-10-10-10--8-8-8-8-8-8-8-8--10-10-10-10-10-10-10-10-| --|
A|-12-12-12-12-12-12-12-12-12--10-10-10-10-10-10-10-10--8-8-8-8-8-8-8-8--10-10-10-10-10-10-10-10-|   |
E|-10-10-10-10-10-10-10-10-10---8--8--8--8--8--8--8--8--6-6-6-6-6-6-6-6---8--8--8--8--8--8--8--8-|   |
                                                                                                     | X2
e|-----------------------------------------------------------------------------------------------|   |
B|-----------------------------------------------------------------------------------------------|   |
G|-----------------------------------------------------------------------------------------------| --|
D|-12-12-12-12-12-12-12-12-12--10-10-10-10-10-10-10-10--8-8-8-8-8-8-8-8--7-7-7-7-7-7-7-7-7-7-7-7-|
A|-12-12-12-12-12-12-12-12-12--10-10-10-10-10-10-10-10--8-8-8-8-8-8-8-8--7-7-7-7-7-7-7-7-7-7-7-7-|
E|-10-10-10-10-10-10-10-10-10---8--8--8--8--8--8--8--8--6-6-6-6-6-6-6-6--5-5-5-5-5-5-5-5-5-5-5-5-|

VERSE 2:(palm mute)
e|------------------------------------------------------------------------------------|
B|------------------------------------------------------------------------------------|
G|------------------------------------------------------------------------------------|
D|------------------------------------------------------------------------------------|
A|------------------------------------------------------------------------------------|
E|--10---8---6---8------10---8---6---5------------------------------------------------|


(palm mute)
e|------------------------------------------------------------------------------------|
B|------------------------------------------------------------------------------------|
G|------------------------------------------------------------------------------------|
D|------------------------------------------------------------------------------------|
A|------------------------------------------------------------------------------------|
E|--10-10-10-10-10-10-10-10---8-8-8-8-8-8-8-8---6-6-6-6-6-6-6-6---8-8-8-8-8-8-8-8-----|

(palm mute)
e|------------------------------------------------------------------------------------|
B|------------------------------------------------------------------------------------|
G|------------------------------------------------------------------------------------|
D|------------------------------------------------------------------------------------|
A|------------------------------------------------------------------------------------|
E|--10-10-10-10-10-10-10-10---8-8-8-8-8-8-8-8---6-6-6-6-6-6-6-6---5-5-5-5-5-5-5-5-----|

(don't palm mute)
e|------------------------------------------------------------------------------------|
B|------------------------------------------------------------------------------------|
G|------------------------------------------------------------------------------------|
D|------------------------------------------------------------------------------------|
A|------------------------------------------------------------------------------------|
E|-10~------8~------6~------8~-------10~------8~------6~------5~----------------------|

CHORUS 2:
e|-----------------------------------------------------------------------------------------------|
B|-----------------------------------------------------------------------------------------------|
G|-----------------------------------------------------------------------------------------------|
D|-12-12-12-12-12-12-12-12-12--10-10-10-10-10-10-10-10--8-8-8-8-8-8-8-8--10-10-10-10-10-10-10-10-| --|
A|-12-12-12-12-12-12-12-12-12--10-10-10-10-10-10-10-10--8-8-8-8-8-8-8-8--10-10-10-10-10-10-10-10-|   |
E|-10-10-10-10-10-10-10-10-10---8--8--8--8--8--8--8--8--6-6-6-6-6-6-6-6---8--8--8--8--8--8--8--8-|   |
                                                                                                     | X2
e|-----------------------------------------------------------------------------------------------|   |
B|-----------------------------------------------------------------------------------------------|   |
G|-----------------------------------------------------------------------------------------------| --|
D|-12-12-12-12-12-12-12-12-12--10-10-10-10-10-10-10-10--8-8-8-8-8-8-8-8--7-7-7-7-7-7-7-7-7-7-7-7-|
A|-12-12-12-12-12-12-12-12-12--10-10-10-10-10-10-10-10--8-8-8-8-8-8-8-8--7-7-7-7-7-7-7-7-7-7-7-7-|
E|-10-10-10-10-10-10-10-10-10---8--8--8--8--8--8--8--8--6-6-6-6-6-6-6-6--5-5-5-5-5-5-5-5-5-5-5-5-|


BREAK (don't play)
"Climbing out the backdoor"


CHORUS 3:
e|-----------------------------------------------------------------------------------------------|
B|-----------------------------------------------------------------------------------------------|
G|-----------------------------------------------------------------------------------------------|
D|-12-12-12-12-12-12-12-12-12--10-10-10-10-10-10-10-10--8-8-8-8-8-8-8-8--10-10-10-10-10-10-10-10-| --|
A|-12-12-12-12-12-12-12-12-12--10-10-10-10-10-10-10-10--8-8-8-8-8-8-8-8--10-10-10-10-10-10-10-10-|   |
E|-10-10-10-10-10-10-10-10-10---8--8--8--8--8--8--8--8--6-6-6-6-6-6-6-6---8--8--8--8--8--8--8--8-|   |
                                                                                                     | X2
e|-----------------------------------------------------------------------------------------------|   |
B|-----------------------------------------------------------------------------------------------|   |
G|-----------------------------------------------------------------------------------------------| --|
D|-12-12-12-12-12-12-12-12-12--10-10-10-10-10-10-10-10--8-8-8-8-8-8-8-8--7-7-7-7-7-7-7-7-7-7-7-7-|
A|-12-12-12-12-12-12-12-12-12--10-10-10-10-10-10-10-10--8-8-8-8-8-8-8-8--7-7-7-7-7-7-7-7-7-7-7-7-|
E|-10-10-10-10-10-10-10-10-10---8--8--8--8--8--8--8--8--6-6-6-6-6-6-6-6--5-5-5-5-5-5-5-5-5-5-5-5-|
Tap to rate this tab
# A B C D E F G H I J K L M N O P Q R S T U V W X Y Z