Song name
# A B C D E F G H I J K L M N O P Q R S T U V W X Y Z

Panic At The Disco - Time To Dance tab

here it is. im sure its not exactly perfect but i know its somewhat correct.

Guitar 1-Clean
Overdub-Distorted



Intro/chorus

Guitar 1
E|------------------------------------------------|
B|------------101010101010/1010101010101010101010-|
G|-1414141414\9-9-9-9-9-9-/1010101010101010101010-|
D|-1212121212\7-7-7-7-7-7-/8-8-8-8-8-8-8-8-8-8-8--|
A|-1212121212\7-7-7-7-7-7-/8-8-8-8-8-8-8-8-8-8-8--|
D|-1212121212\7-7-7-7-7-7-/8-8-8-8-8-8-8-8-8-8-8--|

GUitar 2
E|------------------------------------------------|
B|----------------------------------/101010101010-|
G|----------------------------------/xxxxxxxxxxxx-|
D|----------------------------------/777777777777-|
A|------------------------------------------------|
D|------------------------------------------------|

intro/chorus cont.

Guitar 1
E|--------------------------------------|
B|-1010101010101010---------------------|
G|-9-9-9-9-9-9-9-9-5555555-777777777777-|
D|-7-7-7-7-7-7-7-7-3333333-555555555555-|
A|-7-7-7-7-7-7-7-7-3333333-555555555555-|
D|-7-7-7-7-7-7-7-7-3333333-555555555555-|

Verse 1

E|----------------------------------------------------|
B|----------------------------------------------------|
G|----------------------------------------------------|
D|-8-88-8/------5-55-5/-----8-88-8/----5-55-5/\3-33-3-|
A|-8-88-8/------5-55-5/-----8-88-8/----5-55-5/\3-33-3-|
D|-8-88-8/------5-55-5/-----8-88-8/----5-55-5/\3-33-3-|

verse 1 cont.

E|-----------------------------------------------------------|
B|-----------------------------------------------------------|
G|-101010101010101212/77777777-10101010101010101212/77775555-|
D|-8-8-8-8-8-8-8-1010/55555555-8-8-8-8-8-8-8-8-1010/55553333-|
A|-8-8-8-8-8-8-8-1010/55555555-8-8-8-8-8-8-8-8-1010/55553333-|
D|-8-8-8-8-8-8-8-1010/55555555-8-8-8-8-8-8-8-8-1010/55553333-|

Prechorus

GUItar 1
E|-----------------------------------------------|
B|-------------------1010101010^^^^^^^-----------|
G|---7---------------1010101010(bend 1 1/2 step)-|
D|-7777777777777788888888------------------------|
A|-5555557777777788888888------------------------|
D|-------7777777788888888------------------------|

GUitar 2 (quiet)
E|----6-6-6-6-6-6-6-6-6-66666^^^^^^^^------------|
B|-----5-5-5-5-5-5-5-5-555555^^^^^^^^------------|
G|-----------------------------------------------|
D|-----------------------------------------------|
A|-----------------------------------------------|
D|-----------------------------------------------|

Bridge

Guitar 1
E|---------------------------------555555555------------|
B|-------------------101010^^^^^^^-666666666------------|
G|-------------------101010^^^^^^^-555555555------------|
D|-77777777778888888888------------777777777/1010101010-|
A|-77777777778888888888------------555555555/8888888888-|
D|-77777777778888888888------------000000000------------|

GUitar 2
E|------------------------------------------------------|
B|-------------------------------------------5555555555-|
G|-------------------------------------------5555555555-|
D|-------------------------------------------3333333333-|
A|-------------------------------------------3333333333-|
D|-------------------------------------------3333333333-|

Bridge cont.

Guitar 1
E|---------------------------|
B|---------------------------|
G|-1010-7-7---1010--7-7--5-5-|
D|-8-8--5-5---8-8---5-5--3-3-|
A|-8-8--5-5---8-8---5-5--3-3-|
D|-8-8--5-5---8-8---5-5--3-3-|

Pre-Ending

GUitar 1
E|----------------------------------------|
B|----------------------------------------|
G|3333333333-5555555-555557777-1010101010-|
D|3333333333-5555555-777777777-1010101010-|
A|1111111111-3333333-555555555-8888888888-|
D|----------------------------------------|

ending

GUitar 1
E|5555555555-5-|
B|6666666666-6-|
G|5555555555-5-|
D|7777777777-7-|
A|5555555555-5-|
D|0000000000-0-|

order

intro/chorus
intro/chorus cont.
verse 1
verse 1 cont.
prechorus
intro/chorus
intro/chorus cont.
(no guitar)
verse 1 cont (x2)
prechorus
intro/chorus
intro/chorus cont.
bridge (x2)
bridge cont. 
pre-ending (x2)
Ending

sorry if that was a little confusing!













Tap to rate this tab
# A B C D E F G H I J K L M N O P Q R S T U V W X Y Z