Song name
# A B C D E F G H I J K L M N O P Q R S T U V W X Y Z

Panic At The Disco - Nails For Breakfast Tacks For Snacks tab

Panic at the disco
Nails For Breakfast, Tacks For Snacks

i decided to upload this tab just because there aren't any single correct and complete 
for this song
in the whole web. i've been looking for tabs in all the most popular tab websites and 
are 3 or 4
tabs as much for the song, and they are all incomplete or wrong or both. So i decided to 
my tab and believe
me, its 100 % correct. i've been working on it for days, watching live videos and 
every single part
several times; trying different chords and working on them until i found the correct ones.
Note: the song is played by 3 guitars, but the 3rd one is a background guitar only used 
chorus.


Intro
guitar 1 (w/ a constant delay of 0,400 seconds)
E------------------------------------------------------------------------------------------------------17-|
B--------13s15---15s18-17---------13s15---15s18---17----------13s15---15s18-17--------13s15---15s18-------|
G---14-----------------------14-------------------------14-----------------------14-----------------------|
D---------------------------------------------------------------------------------------------------------|
A---------------------------------------------------------------------------------------------------------|
D---------------------------------------------------------------------------------------------------------|

guitar 2
E-------------------------------------|
B-------------------------------------|
G-------------------------------------|
D---5----5----5-3----5----555----333--|
A---6----6----6-5----6----666----555--|
D---7----7----7-5----7----777----555--|


Verse (only played live by the 2nd guitar)
E-------------------------------------------------------------------------------------|
B-------------------------------------------------------------------------------------|
G-------------------------------------------------------------------------------------|
D---0-0-0-0---7-7-7-7--2-2-2-2--3-3-3-3---0-0-0-0---7-7-7-7---2-2-2-2---3-3-3-3s10-10-|
A---0-0-0-0---7-7-7-7--2-2-2-2--3-3-3-3---0-0-0-0---7-7-7-7---2-2-2-2---3-3-3-3s10-10-|
D---0-0-0-0---7-7-7-7--2-2-2-2--3-3-3-3---0-0-0-0---7-7-7-7---2-2-2-2---3-3-3-3s10-10-|


Prechorus
guitar 1
E---3--------------------------------------5--5--------------------------------------------|
B---3---5p3----------6-----5-----5---------6----6------------------------------------------|
G---3-------3--------5-----5--------5------7------7-------7---7s10-9-10-7s10-9-10-5-----3--|
D---5-----------5s7--7--5--5--3--------3s5-5----------5---------------------------------1--|
A---------------------------------------------------------------------------------------1--|
D---------------------------------------------------------------------------------------1--|

guitar 2 (only played in live version)
E-----------------------------5----------------------------------------------5----------1--|
B---10------------------------6------------10--------------------------------6----------4--|
G---10-----------5------------5------------10----------------------5---------5----------3--|
D---12-----------7-------------------------12----------------------7--------------------1--|
A---10-----------8-------------------------10----------------------8--------------------1--|
D---------------------------------------------------------------------------------------1--|


Chorus
guitar 1
E-------------------------------------------------------------|
B-------------------------------------------------------------|
G---2---2--------2s555--------5s888--------10s777--------7s2--|
D---0---0--------0s333--------3s888---------8s555--------5s0--|
A---0---0--------0s333--------3s888---------8s555--------5s0--|
D---0---0--------0s333--------3s888---------8s555--------5s0--|

guitar 2
E-----5-x-5---------5-x-5---3-3---5-x-5---3-3-------------------10-|
B-----6-x-6---8-8-----x-----------3-x-3---3-3---------------10-----|
G-------x-----------5-x-5---5-5---3-x-3---3-3---7-7----7s10--------|
D-----7-x-7---7-7---3-x-3---3-3---3-x-3---3-3---5-5----------------|
A-----5-x-5---5-5---3-x-3---3-3-----x-----------5-5----------------|
D-----------------------------------------------5-5----------------|

guitar 3 (w/ soft distortion, listen very closely to the song for the struming, its very easy)
E---------------------------------------------------|
B---15---15---15-----15--15-15--15----15--15--15----|
G---14---14---14-----14--14-14--14----14--14--14----|
D---------------------------------------------------|
A---------------------------------------------------|
D---------------------------------------------------|

Second Prechorus
guitar 1
E-------|
B-------|
G---3---|
D---1---|
A---1---|
D---1---|

guitar 2
E---1---|
B---4---|
G---3---|
D---1---|
A---1---|
D---1---|

Interludio
guitar 1
E-------------12-10-------------12---10----------------------------------------------------|
B-------9s11--------------9s11-----------------13s15---15s18-17-------13s15---15s18----17--|
G---12----------------12-------------------14---------------------14-----------------------|
D------------------------------------------------------------------------------------------|
A------------------------------------------------------------------------------------------|

    x3

then:
E-------------12-10-------------12---10----------------------------|
B-------9s11--------------9s11-----------------13s15---13p15--16~--|
G---12----------------12-------------------14----------------------|
D------------------------------------------------------------------|
A------------------------------------------------------------------|
D------------------------------------------------------------------|


guitar 2 (first chorus played clean)
E---3--------------------------------------------------------------------------------------|
B---3--------------------------------------------------------------------------------------|
G---3------------------------------------2----------------------5--------------------------|
D---5------------------------------------0----------------------3--------------------------|
A----------------------------------------0----------------------3--------------------------|

    x2


E------------------------------------------------------------------------------------------|
B------------------------------------------------------------------------------------------|
G---7------------------------------------2----------------------5--------------------------|
D---5------------------------------------0----------------------3--------------------------|
A---5------------------------------------0----------------------3--------------------------|

    x2

then:
E------------------------------------------------------------------------------------------|
B------------------------------------------------------------------------------------------|
G---7------------------------------------2----------------------3--------------------------|
D---5------------------------------------0----------------------1--------------------------|
A---5------------------------------------0----------------------1--------------------------|
D---5------------------------------------0----------------------1--------------------------|


There is also a backgrounding keyboard played, that fades in and then out and then again in
during the interludio. Here are the notes
E----------10------------------------13----------------------------15-------------------|
B---------------------------------------------------------------------------------------|
G---------------------------------------------------------------------------------------|
D---7---7-----7---7---7-7---10---10-----10---10---10-10---12---12-----12---12---12-12---|
A---------------------------------------------------------------------------------------|
D---------------------------------------------------------------------------------------|


The ending is the same as Prechorus. The only intermediately difficult part is the 2nd 
chorus
due to the chorus and strumming, they are a bit complicated (on live brendon urie plays 
perfectly
while he sings along, thats a very difficult work to do).

for any comments or questions email me : badass_bboy@hotmail.com
Tap to rate this tab
 
# A B C D E F G H I J K L M N O P Q R S T U V W X Y Z