Song name
# A B C D E F G H I J K L M N O P Q R S T U V W X Y Z

Panic - My Favorite Mistake Was You tab

-------------------------------------------------------------------------------
		       MY FAVORITE MISTAKE wAS YOU - Panic
-------------------------------------------------------------------------------

By: Mike Crucial www.myspace.com/mikecrucial

   Intro			       Verse
E|-----------------------------------|---------------------------------------|
B|------------------8--10------------|---------------------------------------|
G|--6-5----8-8--9-----------6-5---8--|--9-9-9-9--6-6-6--5-5-5----------------|
D|--6-5-6--8-8--9---5--7----6-5-6-8--|--9-9-9-9--6-6-6--5-5-5--5-5-5-5-5-5---|
A|--4-3-6--6-6--7-----------4-3-6-6--|--7-7-7-7--4-4-4--3-3-3--5-5-5-5-5-5---|
E|------4-----------------------4----|-------------------------3-3-3-3-3-3---|

							Chorus
E|-------------------------------------------|--------|-------------------------------------|
B|-------------------------------------------|--(x2)--|-------------------------------------|
G|--9-9-9-9--6-6-6--5-5-5--------------------|--------|----------------5-5-5---------9-9-9--|
D|--9-9-9-9--6-6-6--5-5-5--5-5-5-5--2-2-2-2--|--------|--7-7-7--3-3-3--5-5-5--5-5-5--9-9-9--|
A|--7-7-7-7--4-4-4--3-3-3--5-5-5-5--2-2-2-2--|--------|--7-7-7--3-3-3--3-3-3--5-5-5--7-7-7--|
E|-------------------------3-3-3-3--0-0-0-0--|--------|--5-5-5--1-1-1---------3-3-3---------|

E|---------------------------------------------------------------------------|
B|---------------------------------------------------------------------------|
G|----------------5-5-5-------------------------------5-5-5---------9-9-9----|
D|--7-7-7--3-3-3--5-5-5--5-5-5--2-2-2---7-7-7--3-3-3--5-5-5--5-5-5--9-9-9----|
A|--7-7-7--3-3-3--3-3-3--5-5-5--2-2-2---7-7-7--3-3-3--3-3-3--5-5-5--7-7-7----|
E|--5-5-5--1-1-1---------3-3-3--0-0-0---5-5-5--1-1-1---------3-3-3-----------|

				Verse
E|----------------------------|----------------------------------------------|
B|----------------------------|----------------------------------------------|
G|----------------6-5----8-8--|--9-9-9-9--6-6-6--5-5-5-----------------------|
D|--7-7-7--3-3-3--6-5-6--8-8--|--9-9-9-9--6-6-6--5-5-5--5-5-5-5-5-5----------|
A|--7-7-7--3-3-3--4-3-6--6-6--|--7-7-7-7--4-4-4--3-3-3--5-5-5-5-5-5----------|
E|--5-5-5--1-1-1------4-------|-------------------------3-3-3-3-3-3----------|

E|-------------------------------------------|--------|--/12-12--------------|
B|-------------------------------------------|--(x2)--|----------------------|
G|--9-9-9-9--6-6-6--5-5-5--------------------|--------|----------------------|
D|--9-9-9-9--6-6-6--5-5-5--5-5-5-5--2-2-2-2--|--------|----------------------|
A|--7-7-7-7--4-4-4--3-3-3--5-5-5-5--2-2-2-2--|--------|----------------------|
E|-------------------------3-3-3-3--0-0-0-0--|--------|----------------------|

   Repeat Chorus

   Bridge       Break/Outro
E|------------|----------------------------------|----------------------------|
B|------------|----------------------------(x2)--|----------------------------|
G|--9--5---3--|--9-9-9-9-9-9-9--5---3-3-3--------|-----------------5---3-3-3--|
D|--9--5-5-3--|--9-9-9-9-9-9-9--5-5-3-3-3--------|--2-2-2-2-2-2-2--5-5-3-3-3--|
A|--7--3-5-1--|--7-7-7-7-7-7-7--3-5-1-1-1--------|--2-2-2-2-2-2-2--3-5-1-1-1--|
E|-------3----|-------------------3--------------|--0-0-0-0-0-0-0----3--------|

E|-------------------------------10-12----------------------------------------||
B|----------------------8-10-12-----------------------------------------------||
G|--9-9-9-9-9-9---9-11--------------------------------------------------------||
D|--9-9-9-9-9-9---------------------------------------------------------------||
A|--7-7-7-7-7-7---------------------------------------------------------------||
E|----------------------------------------------------------------------------||

================================================================================
Tap to rate this tab
# A B C D E F G H I J K L M N O P Q R S T U V W X Y Z