Song name
# A B C D E F G H I J K L M N O P Q R S T U V W X Y Z

Panic - Written In Stone tab

-------------------------------------------------------------------------------
			   WRITTEN IN STONE - Panic
-------------------------------------------------------------------------------

By: Mike Crucial www.myspace.com/mikecrucial

   Intro/Verse/Chorus
E|----------------------------------------------------------------------------|
B|----------------------------------------------------------------------------|
G|--------------------------------------------------8-8-8---------5-5-5-5-----|
D|--4-4-4-4--7-7-7-7--9-9-9-9--10-10-10-10---4-4-4--8-8-8--7-7-7--5-5-5-5--4--|
A|-------------------------------------------4-4-4--6-6-6--7-7-7--3-3-3-3--4--|
E|-------------------------------------------2-2-2---------5-5-5-----------2--|

E|--------|-------------------------------------------------------------------|
B|--------|-------------------------------------------------------------------|
G|-----3--|---------8-8-8---------5-5-5-5-----------------5-5-5------5-4------|
D|--3--3--|--4-4-4--8-8-8--7-7-7--5-5-5-5---4-4-4--7-7-7--5-5-5--4-3-5-4------|
A|--3--1--|--4-4-4--6-6-6--7-7-7--3-3-3-3---4-4-4--7-7-7--3-3-3--4-3-3-2------|
E|--1-----|--2-2-2---------5-5-5------------2-2-2--5-5-5---------2-1----------|

E|----------------------------------------------------------------------------||
B|----------------------------------------------------------------------------||
G|-----------------------6-6-6-6-6-6-6-6-6------------5-5-5-5-----------------||
D|--7-7-7-7-7-7-7-7--2---4-4-4-4-4-4-4-4-4---4-4-4-4--5-5-5-5--4--------------||
A|--7-7-7-7-7-7-7-7--2-----------------------4-4-4-4--3-3-3-3--4--------------||
E|--5-5-5-5-5-5-5-5--0-----------------------2-2-2-2-----------2--------------||

================================================================================
Tap to rate this tab
# A B C D E F G H I J K L M N O P Q R S T U V W X Y Z