Song name
# A B C D E F G H I J K L M N O P Q R S T U V W X Y Z

Panic - Waiting tab

-------------------------------------------------------------------------------
			     Waiting - Panic
-------------------------------------------------------------------------------

E-|--3-----3---3-----3---3-----3-----3-----3---3-----3---3-----3---------| 
B-|------3---------3---------3-----------3--------3----------3-----------| 
G-|----0---------0---------0-----------0--------0----------0-------------| 
D-|----------------------0-----2-------------------------0-----2---------| 
A-|--2---------3---------------------2---------3-------------------------| 
E-|----------------------------------------------------------------------| 

E-|------0---0---0---2-------3-------------7-------5-------3-------2-----|
B-|--3-------------------5-------5----8--------7-------5-------3---------|
G-|----0---0---0---0---0---0---0---0-----0---0---0---0---0---0---0---0---|
D-|------------------0-------2-------------------------------------------|
A-|--2-------3------------------------7------5-------3-------2-----------|
E-|----------------------------------------------------------------------| 

E-|------0----------------0----------------------3-------------3---------|
B-|--1-------0---3------3---3--3---0------1----1-------------1-----------|
G-|----0---0---0---0--2----------2---0------0-------------0--------------|
D-|----------------------------------------------------------------------|
A-|--0-----------------------------2------3-------------3----------------|
E-|----------3--------2--------3-----------------------------------------|

E-|------0---0---0---2-------3-------------7-------5------3--------2-----|
B-|--3-------------------5-------5-----8------7------5-------3-----------|
G-|----0---0---0---0---0---0---0---0-----0---0---0---0---0---0---0---0---|
D-|------------------0-------2-------------------------------------------|
A-|--2-------3-------------------------7------5------3-------2-----------|
E-|----------------------------------------------------------------------| 

E-|------0----------------0---------------------3--------3--------1------|
B-|--1-------0---3------3---3--3----0-----1---1-------4-----------1------|
G-|----0---0---0---0--2----------2---0------0-----------0--0---2---------|
D-|---------------------------------------------------------3------------|
A-|--0-----------------------------2-----3-----------3-------------------|
E-|----------3--------2--------3-----------------------------1-----------|


E-|------3---2-------0---------3---------3----2--------0------------3----|
B-|--3-----------3-------1---4-------3------------3--------1----4--------|
G-|----0---0---0---0---0---0---0--0-----0---0----0---0----0---0----0---0-|
D-|----------------------------------------------------------------------|
A-|----------2-------3-------3----------------2--------3-------3---------|
E-|--3-------------------------------3-----------------------------------|


E-|--------------------------------------------------------------0-1-----|
B-|-----3------3-------3-----------------1------1------1--------3-----3--|
G-|---0--0----2--2----4--4----1-2-4-----2--2---0--0---2---2-----2-------2|
D-|--------------------------2-4-6--------------------------0------------|
A-|----------------------------------0-----------------------------------|
E-|-3-------2-------1-------0----------------3------1----0---------------|


E-|------3---2-------0----------3---------3----2--------0------------3---|
B-|--3-----------3-------1---4-------3-------------3--------1----4-------|
G-|----0---0---0---0---0---0---0--0-----0---0-----0---0----0---0----0---0|
D-|----------------------------------------------------------------------|
A-|----------2-------3-------3-----------------2--------3-------3--------|
E-|--3-------------------------------3-----------------------------------| 


E-|-----------------------------------------------3---------3---------3-2---|
B-|-----3------3-------3------------------0---1----------4----------3-----3-|
G-|---0--0----2--2----4--4----1-2-4------2--2----2----2-----5---5-----------|
D-|--------------------------2-4-6--------------------------------0---------|
A-|-----------------------------------0-----------------3-------------------|
E-|-3-------2-------1-------0-----------------------------------------------|


E-|--3-----3---3-----3---3-----3-----3-----3---3-----3---3-----3-------|
B-|------3---------3---------3-----------3--------3---------3----------|
G-|----0---------0---------0-----------0--------0---------0------------|
D-|---------------------0-----2-------------------------0-----2--------|
A-|--2---------3--------------------2---------3------------------------|
E-|--------------------------------------------------------------------|
Tap to rate this tab
 
# A B C D E F G H I J K L M N O P Q R S T U V W X Y Z