Song name
# A B C D E F G H I J K L M N O P Q R S T U V W X Y Z

Panik - Jeder tab

-------------------------------------------------------------------------------
			     "Jeder" tab
                               by Panik
-------------------------------------------------------------------------------
Tabbed by: Unsaidxpl
Email: unsaidxpl@bk.ru

Tuning: Dropped C Tuning - CGCFAD

Distortion guitar
Riff 1

D|-------------------------------------------------------------------|
A|-------------------------------------------------------------------|
F|-------------------------------------------------------------------|
C|-------------------------------------------------------------------|
G|0----3---3-5---5-7---7-8---8-10-8-0---3---3-5---5-7---7-8-7-5-7-5--|
C|0------0-----0-----0-----0--------0-----0-----0-----0--------------|
                                                                         x2
D|-------------------------------------------------------------------|   
A|-------------------------------------------------------------------|
F|-------------------------------------------------------------------|
C|-------------------------------------------------------------------|
G|0----3---3-5---5-7---7-8---8-10-8-0---3---3-5---5-7---7-5\---------|
C|0------0-----0-----0-----0--------0-----0-----0-----0--------------|

VERSE

D|---------------------------------|
A|---------------------------------|
F|---------------------------------|  x4, then comes Riff1
C|---------------------------------|
G|0----3---3-5---------------------|
C|0------0-------------------------|

CHORUS

D|------------------------------------------------------------------------|
A|------------------------------------------------------------------------|
F|------------------------------------------------------------------------|
C|0---------------3-------5-------8---------------5-----------------------|
G|0---------------3-------5-------8---------------5-----------5-------1---|
C|0---------------3-------5-------8---------------5-------0-0-5---0-0-1---|

D|------------------------------------------------------------------------|
A|------------------------------------------------------------------------|
F|------------------------------------------------------------------------|
C|0---------------3-------5-------8---------------5-----------------------|
G|0---------------3-------5-------8---------------5-----------5-----------|
C|0---------------3-------5-------8---------------5-------0-0-5---0-0-0-0-|

Riff1 Variant (02:08)

D|-------------------------------------------------------------------|   
A|-------------------------------------------------------------------|
F|-------------------------------------------------------------------|
C|-------------------------------------------------------------------|
G|0----3---3-5---5-7---7-8---8-10-8-0---3---3-5---3-1---1-0-----1----|
C|0------0-----0-----0-----0--------0-----0-----0-----0-----0-0-1----|

Bridge (02:13)
Sound switches to clean electric

D|---------------------------------------------------------------|
A|---------------------------------------------------------------|
F|---------------------------------------------------------------|
C|------7---7-------7---7-----7---------3---3-------5---5-----5--|
G|5---5-------5---5-------5-------1---1-------3---3-------3------|
C|---------------------------------------------------------------|
                                                                     x2
D|---------------------------------------------------------------|
A|---------------------------------------------------------------|
F|---------------------------------------------------------------|
C|------7---7-------7---7---------------3---3-------3---3---2----|
G|5---5-------5---5-------5---0---1---1-------3---3-------3------|
C|---------------------------------------------------------------|

Use palm muting where it's necessary
The order of all parts of the song is easy to memorize, just listen to the song


| /  slide up
| \  slide down
| h  hammer-on
| p  pull-off
| ~  vibrato
| +  harmonic
| x  Mute note
===============================================================================
Tap to rate this tab
 
# A B C D E F G H I J K L M N O P Q R S T U V W X Y Z