Song name
# A B C D E F G H I J K L M N O P Q R S T U V W X Y Z

Panima - Act Of Change tab

Artist: Panima
Song: Act Of Change

This song is pretty simple.
If you find some mistakes, well then just make another tab for yourself.

Standard Tune
E A D G B e
6 5 4 3 2 1


Intro
                                      [       1       ]  [       2       ]
 e|-------------------------------|   e|--------------|   e|------------|
 B|-------------------------------|   B|--------------|   B|------------|
 G|-4-4---------------------------|   G|-2-2-2-7-7-7--|   G|-2-2-2------|
{D|-4-4-5p0-4p0-2p0-4p0-5p0-2h4h5-|x2 D|-2-2-2-7-7-7--|   D|-2-2-2------|
 A|-2-2---------------------------|   A|-0-0-0-5-5-5--|   A|-0-0-0------|
 E|-------------------------------|   E|--------------|   E|------------|


Now im just going to write down the power chords to play.
figure out the rhythem youselfs.
Rather fairly easy.

Verse

e|-------------------|
B|-------------------|
G|-4-----7--2--------|
D|-4--5--7--2--------|
A|-2--5--5--0--------|
E|----3--------------|


Pre-chorus

e|-------------------|
B|-------------------|
G|----2-----2--------|
D|-5--2--5--2--------|
A|-5--0--5--0--------|
E|-3-----3-----------|

Chorus

e|-------------------|
B|-------------------|
G|-4-----7--2--------|
D|-4--5--7--2--------|
A|-2--5--5--0--------|
E|----3--------------|

Bridge

e|--------------|
B|--------------|
G|-4------------|
D|-4-5-7--------|
A|-2-5-7--------|
E|---3-5--------|


Now this is not really the best full version.
but hell its my first tab on here.
if you have questions email me at
Bluetardisawesome@hotmail.com
enjoy.
Tap to rate this tab
# A B C D E F G H I J K L M N O P Q R S T U V W X Y Z