Pansy Division - Political Asshole tab

Verse
|----------------------------|
|----------------------------|
|----------------------------|
|----------------------------|
|--------------4-4-4-3--3-3-3|
|0--0-0-5--5-5---------------|

Chorus/Outro
|---------------|
|---------------|
|---------------|
|5-5-5-5-7-7-7-7|
|5-5-5-5-7-7-7-7|
|3-3-3-3-5-5-5-5|
Tap to rate this tab
 
# A B C D E F G H I J K L M N O P Q R S T U V W X Y Z