Pansy Division - Groovy Underwear tab

The strum pattern should probably be changed a little bit.
Intro:
|------------------------------|
|------------------------------|
|------------------------------|
|5-5-55-55-5-55-55-5-55-55--5-5|
|5-5-55-55-5-55-55-5-55-55--5-5|
|3-3-33-33-3-33-33-3-33-33--3-3|
Verse:
|-----------------------------------------------|
|-----------------------------------------------|
|----------------7-7-7-7-7-7-7-7-5-5-5-5-5-5-5-5|
|5-5-5-5-5-5-5-5-7-7-7-7-7-7-7-7-5-5-5-5-5-5-5-5|
|5-5-5-5-5-5-5-5-5-5-5-5-5-5-5-5-3-3-3-3-3-3-3-3|
|3-3-3-3-3-3-3-3--------------------------------|
Chorus:
|---------------------------------------------------------------|
|---------------------------------------------------------------|
|----------------7-7-7-7-7-7-7-7-----------------5-5-5-5-5-5-5-5|
|5-5-5-5-5-5-5-5-7-7-7-7-7-7-7-7-5-5-5-5-5-5-5-5-5-5-5-5-5-5-5-5|
|5-5-5-5-5-5-5-5-5-5-5-5-5-5-5-5-5-5-5-5-5-5-5-5-3-3-3-3-3-3-3-3|
|3-3-3-3-3-3-3-3-----------------3-3-3-3-3-3-3-3----------------|

|---------------------------------------------------------------|
|---------------------------------------------------------------|
|----------------7-7-7-7-7-7-7-7-------------------5-5-5-5------|
|5-5-5-5-5-5-5-5-7-7-7-7-7-7-7-7-5-5-5-5-5-5-5-5-5-5-5-5-5-5-5-5|
|5-5-5-5-5-5-5-5-5-5-5-5-5-5-5-5-3-3-3-3-3-3-3-3-3-3-3-3-5-5-5-5|
|3-3-3-3-3-3-3-3-----------------3-3-3-3-3-3-3-3---------3-3-3-3|
Tap to rate this tab
 
# A B C D E F G H I J K L M N O P Q R S T U V W X Y Z