Song name
# A B C D E F G H I J K L M N O P Q R S T U V W X Y Z

Pantamera - Pantamera tab

This song is used in a Swedish recycle
commercial. I added some base to make
it a bit deeper. Have fun!


E|---------------------------------|
B|------------3---1-----1----------|
G|----------4---4-----0-------2-5--|
D|--0-2-4-5---------2-------4------|
A|----------------3-------5-----3--|
D|--0-2-4-5---------------0--------|


If you wanna make it even more fun,
start without the base in the beggining and
add it later on.


E|---------------------------------|
B|------------3---1-----1----------|
G|----------4---4-----0-------2-5--|
D|--0-2-4-5---------2-------4------|
A|------------------------5--------|
D|---------------------------------|


Niclas, sigmatoon@hotmail.com
Thanks to http://www.pantamera.se
Tap to rate this tab
 
# A B C D E F G H I J K L M N O P Q R S T U V W X Y Z