Song name
# A B C D E F G H I J K L M N O P Q R S T U V W X Y Z

Pantera - Hot And Heavy tab

Help us improve GuitareTab! Take a short survey!
                          "Hot And Heavy"
                              Pantera


intro: 2x
----------------------------------------------------------------------------|
----------------------------------------------------------------------------|
-------------0--5~-(5)-----0--7~-(7)----------------------------------------|
-----2-0--2--0--5~-(5)--2--0--7~-(7)----------------------------------------|
----------0-------------0---------------------------------------------------|
----------------------------------------------------------------------------|
p.m.----
------------------------------------------------------------------------------|
------------------------------------------------------------------------------|
---------0--5~-(5)------------------------------------------------------------|
------2--0--5~-(5)--------5~--------5~----------------------------------------|
-2-0--0---------------0-0----0--0-0-------------------------------------------|
------------------------------------------------------------------------------|
 ---            p.m. ----    -------------------------------------------------|

------------------------------------------------------------------------------|
------------------------------------------------------------------------------|
---------0--7~-(7)------------------------------------------------------------|
------2--0--7~-(7)--------5~--------7~-----5~---------------------------------|
-2-0--0---------------0-0------0-0-----0-0------------------------------------|
------------------------------------------------------------------------------|
 ---             p.m. ---      ---     ---------------------------------------|

------------------------------------------------------------------------------|
------------------------------------------------------------------------------|
---------0--5~-(5)------------------------------------------------------------|
------2--0--5~-(5)--------7~--------7~----------------------------------------|
-2-0--0---------------0-0----0--0-0-------------------------------------------|
------------------------------------------------------------------------------|
 ---            p.m. ------  -------------------------------------------------|

----------------------------------------------------------------------|
----------------------------------------------------------------------|
---------0--5\\\\\\\\\\\\--slide--------------------------------------|
------2--0--5\\\\\\\\\\\\\-slide--------------------------------------|
-2-0--0---------------------------------------------------------------|
----------------------------------------------------------------------|
 ---
------------------------------------------------------------------------------|
------------------------------------------------------------------------------|
------------------------------------------------------------------------------|
2-----------------------------------------------------------------------------|
0-0-0-0-0-0-0-0-0-0-0-0-0-0-0-0-0-0-0-0-0-0-0-0-0-0-0-0-0-0-0-0-0-0-0-0-0-0---|
------------------------------------------------------------------------------|
p.m.--------------------------------------------------------------------------|

-----------------------------------|
-----------------------------------|
-----------------------------------|
-----------------------------------|
------0-0-0-0-0-0-0----------------|
-----------------------------------|
p.m. ------------------------------|


------------------------------------------------------------------------------|
------------------------------------------------------------------------------|
---------0--5~-(5)------------------------------------------------------------|
------2--0--5~-(5)------------------------------------------------------------|
------0-------------0-0-0-0-0-0-----------------------------------------------|
------------------------------------------------------------------------------|
               p.m. ----------------------------------------------------------|

------------------------------------------------------------------------------|
------------------------------------------------------------------------------|
---------0--7~-(7)------------------------------------------------------------|
------2--0--7~-(7)------------------------------------------------------------|
------0-------------0-0-0-0-0-0-----------------------------------------------|
------------------------------------------------------------------------------|
               p.m. ----------------------------------------------------------|
------------------------------------------------------------------------------|
------------------------------------------------------------------------------|
---------0--5~-(5)------------------------------------------------------------|
------2--0--5~-(5)------------------------------------------------------------|
------0-------------0-0-0-0-0-0-----------------------------------------------|
------------------------------------------------------------------------------|
               p.m. ----------------------------------------------------------|

-----------------------------------------------------------------------------|
-----------------------------------------------------------------------------|
---------0--7\\\\\-slide-----------------------------------------------------|
------2--0--7\\\\\-slide-----------------------------------------------------|
------0----------------------------------------------------------------------|
-----------------------------------------------------------------------------|

-----------------------------------------------------17b-17b-15-21/----------|
-----------------------5-4-0-------------------------------------------------|
-----------------------------5-4---------------------------------------------|
-2--5-----7---2--5---------------4~---2--5-----7-----------------------------|
-0--3--5--5---0--3--5-----------------0--3--5--5-----------------------------|
-------3------------3-----------------------3--------------------------------|

chorus:
-----------------------------------------------------------------------------|
-----------------------------------------------------------------------------|
--------0----2----0---0-2-------0----2--[9]----------------------------------|
--------0----2----0---0-2-------0----2--[9]----------------------------------|
--2------------------------2-------------------------------------------------|
--0--0-----0----0---0------0--0----0-----------------------------------------|
     -     -    -   -         -    -  pitch harmonics

-----------------------------------------------------------------------------|
-----------------------------------------------------------------------------|
--------0----2----0---0-2-------0----2--[5]----------------------------------|
--------0----2----0---0-2-------0----2--[5]----------------------------------|
--2------------------------2-------------------------------------------------|
--0--0-----0----0---0------0--0----0-----------------------------------------|
     -     -    -   -         -    -  pitch harmonics

------------------------------------------------------------------------------|
------------------------------------------------------------------------------|
------------------------------------------------------------------------------|
2-----------------------------------------------------------------------------|
0-0-0-0-0-0-0-0-0-0-0-0-0-0-0-0-0-0-0-0-0-0-0-0-0-0-0-0-0-0-0-0-0-0-0-0-0-0---|
------------------------------------------------------------------------------|
p.m.--------------------------------------------------------------------------|

-----------------------------------|
-----------------------------------|
-----------------------------------|
-----------------------------------|
------0-0-0-0-0-0-0----------------|
-----------------------------------|
p.m. ------------------------------|

------------------------------------------------------------------------------|
------------------------------------------------------------------------------|
---------0--5~-(5)------------------------------------------------------------|
------2--0--5~-(5)------------------------------------------------------------|
------0-------------0-0-0-0-0-0-----------------------------------------------|
------------------------------------------------------------------------------|
               p.m. ----------------------------------------------------------|

------------------------------------------------------------------------------|
------------------------------------------------------------------------------|
---------0--7~-(7)------------------------------------------------------------|
------2--0--7~-(7)------------------------------------------------------------|
------0-------------0-0-0-0-0-0-----------------------------------------------|
------------------------------------------------------------------------------|
               p.m. ----------------------------------------------------------|
------------------------------------------------------------------------------|
------------------------------------------------------------------------------|
---------0--5~-(5)------------------------------------------------------------|
------2--0--5~-(5)------------------------------------------------------------|
------0-------------0-0-0-0-0-0-----------------------------------------------|
------------------------------------------------------------------------------|
               p.m. ----------------------------------------------------------|

-----------------------------------------------------------------------------|
-----------------------------------------------------------------------------|
---------0--7\\\\\-slide-----------------------------------------------------|
------2--0--7\\\\\-slide-----------------------------------------------------|
------0----------------------------------------------------------------------|
-----------------------------------------------------------------------------|

-----------------------------------------------------17b-17b-15-21/----------|
-----------------------5-4-0-------------------------------------------------|
-----------------------------5-4---------------------------------------------|
-2--5-----7---2--5---------------4~---2--5-----7-----------------------------|
-0--3--5--5---0--3--5-----------------0--3--5--5-----------------------------|
-------3------------3-----------------------3--------------------------------|

chorus:
-----------------------------------------------------------------------------|
-----------------------------------------------------------------------------|
--------0----2----0---0-2-------0----2--[9]----------------------------------|
--------0----2----0---0-2-------0----2--[9]----------------------------------|
--2------------------------2-------------------------------------------------|
--0--0-----0----0---0------0--0----0-----------------------------------------|
     -     -    -   -         -    -  pitch harmonics

-----------------------------------------------------------------------------|
-----------------------------------------------------------------------------|
--------0----2----0---0-2-------0----2--[5]----------------------------------|
--------0----2----0---0-2-------0----2--[5]----------------------------------|
--2------------------------2-------------------------------------------------|
--0--0-----0----0---0------0--0----0-----------------------------------------|
     -     -    -   -         -    -  pitch harmonics

-----------------------------------------------------------------------------|
-----------------------------------------------------------------------------|
--------0----2----0---0-2-------0----2--[9]----------------------------------|
--------0----2----0---0-2-------0----2--[9]----------------------------------|
--2------------------------2-------------------------------------------------|
--0--0-----0----0---0------0--0----0-----------------------------------------|
     -     -    -   -         -    -  pitch harmonics

-----------------------------------------------------------------------------|
-----------------------------------------------------------------------------|
--------0----2----0---0-2-------0----2--[5]----------------------------------|
--------0----2----0---0-2-------0----2--[5]----------------------------------|
--2------------------------2-------------------------------------------------|
--0--0-----0----0---0------0--0----0-----------------------------------------|
     -     -    -   -         -    -  pitch harmonics

i dont know the solo sorry. play this during the solo, listen for the timing.
--------------------------|
--------------------------|
--------------------------|
----2-2------2-2------2-0-|
--2-0-0----2-0-0----2-0-0-|
--0--------0--------0-----|

------------------------------------------------------------------------------|
------------------------------------------------------------------------------|
---------0--5~-(5)------------------------------------------------------------|
------2--0--5~-(5)------------------------------------------------------------|
------0-------------0-0-0-0-0-0-----------------------------------------------|
------------------------------------------------------------------------------|
               p.m. ----------------------------------------------------------|

------------------------------------------------------------------------------|
------------------------------------------------------------------------------|
---------0--7~-(7)------------------------------------------------------------|
------2--0--7~-(7)------------------------------------------------------------|
------0-------------0-0-0-0-0-0-----------------------------------------------|
------------------------------------------------------------------------------|
               p.m. ----------------------------------------------------------|
------------------------------------------------------------------------------|
------------------------------------------------------------------------------|
---------0--5~-(5)------------------------------------------------------------|
------2--0--5~-(5)------------------------------------------------------------|
------0-------------0-0-0-0-0-0-----------------------------------------------|
------------------------------------------------------------------------------|
               p.m. ----------------------------------------------------------|

-----------------------------------------------------------------------------|
-----------------------------------------------------------------------------|
---------0--7\\\\\-slide-----------------------------------------------------|
------2--0--7\\\\\-slide-----------------------------------------------------|
------0----------------------------------------------------------------------|
-----------------------------------------------------------------------------|

-----------------------------------------------------17b-17b-15-21/----------|
-----------------------5-4-0-------------------------------------------------|
-----------------------------5-4---------------------------------------------|
-2--5-----7---2--5---------------4~---2--5-----7-----------------------------|
-0--3--5--5---0--3--5-----------------0--3--5--5-----------------------------|
-------3------------3-----------------------3--------------------------------|

chorus: keep repeating until it fades out. sorry i dont have the outro solo.
-----------------------------------------------------------------------------|
-----------------------------------------------------------------------------|
--------0----2----0---0-2-------0----2--[9]----------------------------------|
--------0----2----0---0-2-------0----2--[9]----------------------------------|
--2------------------------2-------------------------------------------------|
--0--0-----0----0---0------0--0----0-----------------------------------------|
     -     -    -   -         -    -  pitch harmonics

-----------------------------------------------------------------------------|
-----------------------------------------------------------------------------|
--------0----2----0---0-2-------0----2--[5]----------------------------------|
--------0----2----0---0-2-------0----2--[5]----------------------------------|
--2------------------------2-------------------------------------------------|
--0--0-----0----0---0------0--0----0-----------------------------------------|
     -     -    -   -         -    -  pitch harmonics

-----------------------------------------------------------------------------|
-----------------------------------------------------------------------------|
--------0----2----0---0-2-------0----2--[9]----------------------------------|
--------0----2----0---0-2-------0----2--[9]----------------------------------|
--2------------------------2-------------------------------------------------|
--0--0-----0----0---0------0--0----0-----------------------------------------|
     -     -    -   -         -    -  pitch harmonics

-----------------------------------------------------------------------------|
-----------------------------------------------------------------------------|
--------0----2----0---0-2-------0----2--[5]----------------------------------|
--------0----2----0---0-2-------0----2--[5]----------------------------------|
--2------------------------2-------------------------------------------------|
--0--0-----0----0---0------0--0----0-----------------------------------------|
     -     -    -   -         -    -  pitch harmonics


enjoy people!!!

 by Tricky.
Related for Hot And Heavy tab