Song name
# A B C D E F G H I J K L M N O P Q R S T U V W X Y Z

Pantera - Hellbound tab

Pantera 
Reinventing the Steel
Hellbound
TAB by Keryn Hamilton
zepplin@start.com.au
----------------------------------------------------------------------

Riff 1 (with flanger)
---------------------------------|---------------------------------| 
---------------------------------|---------------------------------| 
---------------------------------|---------------------------------|x4 
---------------------------------|---------------------------------| 
---------------------------------|---------------------------------| 
-0-0-0-0-0-0-0-0-0-0-0-0-0-0-0-0-|-0-0-0-0-0-0-0-0-0-0-0-0-0-0-0-0-|


Riff 2
---------------------------------|---------------------------------|
---------------------------------|---------------------------------|
---------------------------------|---------------------------------|x4
---------------------------------|---------------------------------|
---------------------------------|---------------------------------|
-5-0-0-3-0-0-0-0-0-0-0-0-0-0-0-0-|-5-0-0-3-0-0-0-0-0-0-0-0-0-0-0-0-|


Fill 1
---------------------------------|---------------------------------|
---------------------------------|---------------------------------|
---------------------------------|---------------------------------|
---------------------------------|---------------------------------|
-5-----4~~~~~~-------------------|-7-----5~~~~~~-------------------|
-3-0-0-2~~~~~~-------------------|-5-0-0-3~~~~~~-------------------|


---------------------------------|---------------------------------|
---------------------------------|---------------------------------|
---------------------------------|---------------------------------|
---------------------------------|---------------------------------|
---------------------------------|---------------------------------|
-0-0-0-0-0-0-0-0-0-0-0-0-0-0-0-0-|-0-0-0-0-0-0-0-0-0-0-0-0-0-0-0-0-|


         "It's like religion..."          
---------------------------------|---------------------------------|
---------------------------------|---------------------------------|
---------------------------------|---------------------------------|
---------------------------------|---------------------------------|
-5-----4~~~~~~-------------------|-7-----5~~~~~~-------------------|
-3-0-0-2~~~~~~-------------------|-5-0-0-3~~~~~~-------------------|


---------------------------------|---------------------------------|
---------------------------------|---------------------------------|
---------------------------------|---------------------------------|x2
---------------------------------|---------------------------------|
---------------------------------|---------------------------------|
-0-0-0-0-0-0-0-0-0-0-0-0-0-0-0-0-|-0-0-0-0-0-0-0-0-0-0-0-0-0-0-0-0-|


Riff 3 (Chorus)
--------------------------|
--------------------------|
--------------------------|x3
--------------------------|
-2-2--2--2--2-2--2--4-5---|
-0-0--0--0--0-0--0--2-3---|



-------------------------|
-------------------------|
-------------------------|
-------------------------|
-2-2--2--2--2-2-2--2--2--|
-0-0--0--0--0-0-0--0--0--|


---------------------------|
---------------------------|
---------------------------|x3
---------------------------|
-2-2--2--2--2-10\----4-5---|
-0-0--0--0--0--8\-0--2-3---|


------------------|
------------------|
------------------|
------------------|
-2-2--2--2--2-2---|
-0-0--0--0--0-0---|

Riff 4 
---------------------------------|---------------------------------|
---------------------------------|---------------------------------|
---------------------------------|---------------------------------|
---------------------------------|---------------------------------|
---------------------------------|---------------------------------|
-2-2-2-2-2-2-2-2-2-2-2-2-2-2-2-2-|-4-4-4-4-4-4-4-4-5-5-5-5-7-7-7-7-|
----------------------------------------------------------------------

This is followed by big pick scrapes, repeated a couple of times, and,
that's it. Any comments or jibberish will be kindly accepted at 
zepplin@start.com.au
Tap to rate this tab
# A B C D E F G H I J K L M N O P Q R S T U V W X Y Z