Song name
# A B C D E F G H I J K L M N O P Q R S T U V W X Y Z

Pantera - Hole In The Sky tab

Band- Pantera
Song- Hole In The Sky

Play this song with distortion. bf= fully bend p=pull off h= hammer on
b= bend
Intro/Verse    repeat 2x
e -----------------------------------------------------|
b -----------------------------------------------------|
g ------9-7-9--------9-7-9--------9-7-9----------------|
d -2-2----------2-2----------2-2----------5--7---------|
a -2-2----------2-2----------2-2----------5--7---------|
e -0-0----------0-0----------0-0----------3--5---------|

e -----------------------------------------------------|
b -----------------------------------------------------|
g ------9-7-9--------9-7-9--------9-7-9----------------|
d -2-2----------2-2----------2-2----------7--5---------|
a -2-2----------2-2----------2-2----------7--5---------|
e -0-0----------0-0----------0-0----------5--3---------|


Chorus       repeat 4x
e -----------------------------------------------------|
b -----------------------------------------------------|
g --------7-9-7--0-------------------------------------|
d -2-2---------------7-9-7--0--------------------------|
a -2-2--------------------------7-9-7~-----------------|
e -0-0-------------------------------------------------|

Verse        repeat 2x
e -----------------------------------------------------|
b -----------------------------------------------------|
g ------9-7-9--------9-7-9--------9-7-9----------------|
d -2-2----------2-2----------2-2----------5--7---------|
a -2-2----------2-2----------2-2----------5--7---------|
e -0-0----------0-0----------0-0----------3--5---------|


e -----------------------------------------------------|
b -----------------------------------------------------|
g ------9-7-9--------9-7-9--------9-7-9----------------|
d -2-2----------2-2----------2-2----------7--5---------|
a -2-2----------2-2----------2-2----------7--5---------|
e -0-0----------0-0----------0-0----------5--3---------|

Chorus       repeat 4x
e -----------------------------------------------------|
b -----------------------------------------------------|
g --------7-9-7--0-------------------------------------|
d -2-2---------------7-9-7--0--------------------------|
a -2-2--------------------------7-9-7~-----------------|
e -0-0-------------------------------------------------|

Verse       repeat 2x
e -----------------------------------------------------|
b -----------------------------------------------------|
g ------9-7-9--------9-7-9--------9-7-9----------------|
d -2-2----------2-2----------2-2----------5--7---------|
a -2-2----------2-2----------2-2----------5--7---------|
e -0-0----------0-0----------0-0----------3--5---------|


e -----------------------------------------------------|
b -----------------------------------------------------|
g ------9-7-9--------9-7-9--------9-7-9----------------|
d -2-2----------2-2----------2-2----------7--5---------|
a -2-2----------2-2----------2-2----------7--5---------|
e -0-0----------0-0----------0-0----------5--3---------|

Verse 2    repeat 13x
e -----------------------------------------------------|
b -----------------------------------------------------|
g -6-6-5-3---------------------------------------------|
d ---------6-------------------------------------------|
a -----------------------------------------------------|
e -----------------------------------------------------|

e -----------------------------------------------------|
b -----------------------------------------------------|
g -----------------------------------------------------|
d -4-4-4--3~-------------------------------------------|
a -4-4-4--3~-------------------------------------------|
e -2-2-2--1~-------------------------------------------|

Verse       repeat 4x
e -----------------------------------------------------|
b -----------------------------------------------------|
g ------9-7-9--------9-7-9--------9-7-9----------------|
d -2-2----------2-2----------2-2----------5--7---------|
a -2-2----------2-2----------2-2----------5--7---------|
e -0-0----------0-0----------0-0----------3--5---------|


e -----------------------------------------------------|
b -----------------------------------------------------|
g ------9-7-9--------9-7-9--------9-7-9----------------|
d -2-2----------2-2----------2-2----------7--5---------|
a -2-2----------2-2----------2-2----------7--5---------|
e -0-0----------0-0----------0-0----------5--3---------|

Verse 2    repeat 13x
e -----------------------------------------------------|
b -----------------------------------------------------|
g -6-6-5-3---------------------------------------------|
d ---------6-------------------------------------------|
a -----------------------------------------------------|
e -----------------------------------------------------|


e -----------------------------------------------------|
b -----------------------------------------------------|
g -----------------------------------------------------|
d -4-4-4--3~-------------------------------------------|
a -4-4-4--3~-------------------------------------------|
e -2-2-2--1~-------------------------------------------|

Solo

e -----------------------------------------------------|
b -----------------------------------------------------|
g -----------------------------------------------------|
d -----------5/7--5/7------------5/7--5/7--------------|
a -5/7--5/7b-----------5/7--5/7b-----------------------|
e -----------------------------------------------------|

e ----------------------------------------------------------------------------------------------5--------|
b ------------------------------------------------------------------------------------------5-8---8-5----|
g -----------------------------------------------------------------5h-7h-5h-7h-5h-7h-5h--------------7fb-|
d --------------------------------------------5h-7h-5h-7h-5h-7h-5h---------------------------------------|
a -----------------------5h-7h-5h-7h-5h-7h-5h------------------------------------------------------------|
e -5h-7h-5h-7h-5h-7h-5h----------------------------------------------------------------------------------|

e ---------------------10------7-10-------7-10------7-10-10-10-10-------|
b ------------------------7-10-------7-10------7-10---------------------|
g ----------------------------------------------------------------------|
d -5--5--5--------------------------------------------------------------|
a ----------5--5--5--5fb------------------------------------------------|
e ----------------------------------------------------------------------|

e -10-10-10-10-10-10-10-9-7--7-9-16-16-16-16----------------------------|
b ----------------------------------------------------------------------|
g ----------------------------------------------------------------------|
d ----------------------------------------------------------------------|
a ----------------------------------------------------------------------|
e ----------------------------------------------------------------------|

e -15-12-------15-12----------------------------------------------------|
b -------15-9--------15-9--9-10-9-7-5-7-5-------------------------------|
g ----------------------------------------7-5-7-5---13~fb---------------|
d ------------------------------------------------9---------------------|
a ----------------------------------------------------------------------|
e ----------------------------------------------------------------------|

Verse
e -----------------------------------------------------|
b -----------------------------------------------------|
g ------9-7-9--------9-7-9--------9-7-9----------------|
d -2-2----------2-2----------2-2----------5--7---------|
a -2-2----------2-2----------2-2----------5--7---------|
e -0-0----------0-0----------0-0----------3--5---------|


e -----------------------------------------------------|
b -----------------------------------------------------|
g ------9-7-9--------9-7-9--------9-7-9----------------|
d -2-2----------2-2----------2-2----------7--5---------|
a -2-2----------2-2----------2-2----------7--5---------|
e -0-0----------0-0----------0-0----------5--3---------|

Verse 2    repeat 13x
e -----------------------------------------------------|
b -----------------------------------------------------|
g -6-6-5-3---------------------------------------------|
d ---------6-------------------------------------------|
a -----------------------------------------------------|
e -----------------------------------------------------|


e -----------------------------------------------------|
b -----------------------------------------------------|
g -----------------------------------------------------|
d -4-4-4--3-3-3-3-3-3-3-3-3-2~-------------------------|
a -4-4-4--3-3-3-3-3-3-3-3-3-2~-------------------------|
e -2-2-2--1-1-1-1-1-1-1-1-1-0~-------------------------|

Chorus
e -----------------------------------------------------|
b -----------------------------------------------------|
g --------7-9-7--0-------------------------------------|
d -2-2---------------7-9-7--0--------------------------|
a -2-2--------------------------7-9-7~-----------------|
e -0-0-------------------------------------------------|


e -----------------------------------------------------|
b -----------------------------------------------------|
g --------7-9-7--0-------------------------------------|
d -2-2---------------7-9-7--0--------------------------|
a -2-2---------------------------7~fb------------------|
e -0-0-------------------------------------------------|


e -----------------------------------------------------|
b -----------------------------------------------------|
g --------7-9-7--0-------------------------------------|
d -2-2---------------7-9-7--0--------------------------|
a -2-2--------------------------7-9-7~-----------------|
e -0-0-------------------------------------------------|


e -----------------------------------------------------|
b -----------------------------------------------------|
g --------7-9-7--0-------------------------------------|
d -2-2---------------7-9-7--0--------------------------|
a -2-2---------------------------7~fb------------------|
e -0-0-------------------------------------------------|

Verse
e -----------------------------------------------------|
b -----------------------------------------------------|
g ------9-7-9--------9-7-9--------9-7-9----------------|
d -2-2----------2-2----------2-2----------5--7---------|
a -2-2----------2-2----------2-2----------5--7---------|
e -0-0----------0-0----------0-0----------3--5---------|


e -----------------------------------------------------|
b -----------------------------------------------------|
g ------9-7-9--------9-7-9--------9-7-9----------------|
d -2-2----------2-2----------2-2----------7--5---------|
a -2-2----------2-2----------2-2----------7--5---------|
e -0-0----------0-0----------0-0----------5--3---------|

e -----------------------------------------------------|
b -----------------------------------------------------|
g ------9-7-9--------9-7-9--------9-7-9----------------|
d -2-2----------2-2----------2-2----------5--7---------|
a -2-2----------2-2----------2-2----------5--7---------|
e -0-0----------0-0----------0-0----------3--5---------|

e -----------------------------------------------------|
b -----------------------------------------------------|
g ------9-7-9--------9-7-9-----------------------------|
d -2-2----------2-2------------------------------------|
a -2-2----------2-2------------------------------------|
e -0-0----------0-0------------------------------------|
Tap to rate this tab
 
# A B C D E F G H I J K L M N O P Q R S T U V W X Y Z