Guitaretab - guitar tabs
Song name
# A B C D E F G H I J K L M N O P Q R S T U V W X Y Z

Pantera - Cemetery Gates tab

----------------------------------------------------------------------------
			     CEMETARY GATES - Pantera
----------------------------------------------------------------------------
Tabbed by:josh
Email:joshydosh@hotmail.co.uk

Tuning:normal E,A,D,G,B,E

| /  slide up
| \  slide down
| h  hammer-on
| p  pull-off
| ~  vibrato
| +  harmonic
| x  Mute note
| .  palm muted
| *  artificial harmonic or 'squeal'

on the track theres a number of different instruments going at once, this is what sounds 
most of em all in one.
Figure 1a:
e|-----------------------------------------------------0----------------|
B|---------2-----------------------------------------2----2-------------|
G|-------2----2-------4-4--------------4-4--4-4----4--------4--4bp2-4b--|
D|-----2---------2--2----------------2----------0-----------------------|
A|---4-----------0---------0h2-2h4-2------------------------------------|
E|-2--------------------------------------------------------------------|

Figure 1b:
e|-----------------------------------------------------0--------|
B|---------2-------------------------------------2-------2------|
G|-------2----2------4-4--------------4-4--4-4-----4-------4----|
D|-----2-----------2----------------2----------0-----0-------0--|
A|---4----------0---------0h2-2h4-2-----------------------------|
E|-2------------------------------------------------------------|

play that a few times then on the last go play
figure 1c:
e|----------------------------------------------------0---------------------|
B|---------2----------------------------------------2---2-------------------|
G|-------2----2-------4-4--------------4-4--4-4---4--------3/5--5/6--6/8----|
D|-----2------------2----------------2----------0----------4/6--6/7--7/9----|
A|---4----------0----------0h2-2h4-2----------------------------------------|
E|-2------------------------------------------------------------------------|

Figure 2a:
e|--------------------------------------------------------------------------|
B|-10b---------9b----------12b-----------13b---------------5----------------|
G|--------6----------9-------------8-------------7-----4h6-------------4b---|
D|----------------------------------------------------------------2-4-------|
A|------------------------------------------------------------2h4-----------|
E|--------------------------------------------------------------------------|

Figure 2b:
e|--------------------------------------------------------------------------|
B|-----------5-5b~-----12-15---12-15/17-14-17/19-15-18/20-17-20/22----------|
G|-4b--2-----------4--------------------------------------------------------|
D|-------2------------------------------------------------------------------|
A|--------------------------------------------------------------------------|
E|--------------------------------------------------------------------------|

Figure 3a:
e|--------------------------------------------------------------------|
B|--------------------------------------------------------------------|
G|--------------------------4s----------------------------------------|
D|-2--2-2-2-2--2-1-2-3s-2-3----2-3--2--2-2-2-2--2-1-2-3--2-1---1------| x3
A|-0--0-0-0-0-----------------------0--0-0-0-0---------------3---3----| then
E|--------------------------------------------------------------------|
[ Tab from: http://www.guitaretab.com/p/pantera/14115.html ]
Figure 3b:                  |------figure-4-----------------------|
e|----------------------------------------------------------------|
B|----------------------------------------------------------------|
G|----------------------------------------------------------------|
D|-2--2-2-2-2--2-1-2-3--2-1-------------2-2-2-4-4-4-5-------------|
A|-0--0-0-0-0----------------2-3--4-4-4-0-0-0-2-2-2-3--2-3--------|
E|---------------------------0-1--2-2-2----------------0-1--------|
                                    . .   . .   . .
Then back to figure 1a, 1b. then figure 5a:
e|--------------------------------------------------|
B|--------------------------------------------------|
G|-----------2---------2---------2------------------|
D|--------------2-------------------7-6-------------|
A|----4----4----0----4----2----4----5-4--2-4--------|
E|22/-2-------------------0--------------0-2--------|

Figure 5b:
e|--------------------------------------------------------|
B|--------------------------------------------------------|
G|--------2--------2--------2-----------------------------|
D|----------2-----------------7-7-7-6---------------------|
A|-4----4---0----4---2----4---5-5-5-4--6-6/7--------------|
E|-2-----------------0-----------------4-4/5--------------|

then its back through figure 3a, 3b and 4 to solo intro:

e|-----------------------------------------------------------5---5-4-4------|
B|-------------------------------------------------------------2-----2------|
G|----------------------------------------2*--3-5-7-5-3-2-------------------|
D|--------------------------------------------------------------------------|
A|--------------------------------------------------------------------------|
E|-5--0--1--5--0--1--5-5--0--1--5-5--0--1-----------------------------------|

solo figure 1:
e|-----12---10---10p8-----9-------------------------7---7-------------------|
B|-5/8----9------------12---10---9-8------------------7---7b---7-8-7-5-7----|
G|-----------------------------------9-8-7-5h6h7----------------------------|
D|--------------------------------------------------------------------------|
A|--------------------------------------------------------------------------|
E|--------------------------------------------------------------------------|

solo figure 2:
e|-7-9p7-10p7-12p7-9-11p9-12p9-14p9-10-12p10-13p10-15p10-12-14p12-15p12-17p-|
B|--------------------------------------------------------------------------|
G|--------------------------------------------------------------------------|
D|--------------------------------------------------------------------------|
A|--------------------------------------------------------------------------|
E|--------------------------------------------------------------------------|

e|12-14-16p14-17p14-19p14-16-18p16-19p16-21p16-17-19p16-20p16-22p16---------|
B|--------------------------------------------------------------------------|
G|--------------------------------------------------------------------------|
D|--------------------------------------------------------------------------|
A|--------------------------------------------------------------------------|
E|--------------------------------------------------------------------------|

e|-----14-----------14------------14-----------14-----------14--------------|
B|--------17p14--------17p14---------17p14--------17p14--------17p14--------|
G|-16b----------16b----------16b-----------16b----------16b----------16b----|
D|--------------------------------------------------------------------------|
A|--------------------------------------------------------------------------|
E|--------------------------------------------------------------------------|

this is bit doesnt normaly sound right until played fast
e|--------------------------------------------------------------------------|
B|--------------------------------------------------------------------------|
G|--------------------------------------------------------------------------|
D|-----------------------------------99101012129911111212-------------------|
A|-----------------991010121299111212---------------------------------------|
E|-7788101077991010---------------------------------------------------------|

gotta work out the rest and when i do i'll get it here ASAP.
enjoy!
Related for Cemetery Gates tab
×
Best way to learn
"Cemetery Gates"