Song name
# A B C D E F G H I J K L M N O P Q R S T U V W X Y Z

Pantera - Heresy tab

heresy
pantera

yes this is copied, but i only did it because people will want to learn this song, and 
album version is a really good tab. Sorry dude im not doing this to annoy you, but this 
a great song.


                      NH      NH   NH   NH  NH  NH   NH   NH
     H        Q.       E       E    E    S   S   E    E    E    S   S   E
E||-----------------------|------------------------------------------------|
B||-----------------------|------------------------------------------------|
G||-----------------------|------------------------------------------------|
D||-----------------------|------------------------------------------------|
A||-----------------------|------------------------------------------------|
E||------------------<>5--|--<>L--<>5--<>4-<>4-<>4--<>4--<>4--<>3-<>3-<>3--|


    E    E    S   S   E    S   S   E    E    E
------------------------------------------------|
------------------------------------------------|
------------------------------------------------|
------------------------------------------------|
------------------------------------------------|
--<>3--<>3--<>3-<>3-<>3--<>2-<>2-<>2--<>2--<>5--|


    NH   NH   NH  NH  NH   NH   NH
    E    E    S   S   E    E    E    S   S   E
------------------------------------------------|
------------------------------------------------|
------------------------------------------------|
------------------------------------------------|
------------------------------------------------|
--<>L--<>5--<>4-<>4-<>4--<>4--<>4--<>3-<>3-<>3--|


    E    E    S   S   E    S   S   E    E    E
------------------------------------------------|
------------------------------------------------|
------------------------------------------------|
------------------------------------------------|
------------------------------------------------|
--<>3--<>3--<>3-<>3-<>3--<>2-<>2-<>2--<>2--<>5--|


    NH   NH   NH  NH  NH   NH   NH
    E    E    S   S   E    E    E    S   S   E
------------------------------------------------|
------------------------------------------------|
------------------------------------------------|
------------------------------------------------|
------------------------------------------------|
--<>L--<>5--<>4-<>4-<>4--<>4--<>4--<>3-<>3-<>3--|


    E    E    S   S   E    S   S   E    E    E
------------------------------------------------|
------------------------------------------------|
------------------------------------------------|
------------------------------------------------|
------------------------------------------------|
--<>3--<>3--<>3-<>3-<>3--<>2-<>2-<>2--<>2--<>5--|


    NH   NH   NH  NH  NH   NH   NH
    E    E    S   S   E    E    E    S   S   E
------------------------------------------------|
------------------------------------------------|
------------------------------------------------|
------------------------------------------------|
------------------------------------------------|
--<>L--<>5--<>4-<>4-<>4--<>4--<>4--<>3-<>3-<>3--|


    E    E    S   S   E    S   S   E    E  E     E  E  S S E  S S E  S S E
----------------------------------------------|-----------------------------|
----------------------------------------------|-----------------------------|
----------------------------------------------|-----------------------------|
----------------------------------------------|-----------------------------|
----------------------------------------------|-----------------------------|
--<>3--<>3--<>3-<>3-<>3--<>2-<>2-<>2--<>2--0--|-----0--2-2-0--0-0-0--2-2-0--|


  S S E  S S E  S S E  E  E     E  E  S S E  S S E  S S E
-----------------------------|-----------------------------|
-----------------------------|-----------------------------|
-----------------------------|-----------------------------|
-----------------------------|-----------------------------|
-----------------------------|-----------------------------|
--0-0-0--4-4-0--0-0-0--3--0--|-----0--2-2-0--0-0-0--2-2-0--|


  S S S S S S S S S S S S E  E     E  E  S S E  S S E  S S E
--------------------------------|-----------------------------|
--------------------------------|-----------------------------|
--------------------------------|-----------------------------|
--------------------------------|-----------------------------|
--------------------------------|-----------------------------|
--0-0-0-0-4-0-0-0-0-0-0-0-3--0--|-----0--2-2-0--0-0-0--2-2-0--|


  S S E  S S E  S S E  E  E     E  E  S S E  S S E  S S E
-----------------------------|-----------------------------|
-----------------------------|-----------------------------|
-----------------------------|-----------------------------|
-----------------------------|-----------------------------|
-----------------------------|-----------------------------|
--0-0-0--4-4-0--0-0-0--3--0--|-----0--2-2-0--0-0-0--2-2-0--|


  S S E  Q    Q    E  E     E  E  S S E  S S E  S S E
-------------------------|-----------------------------|
-------------------------|-----------------------------|
-------------------------|-----------------------------|
-------------------------|-----------------------------|
-------------------------|-----------------------------|
--0-0--------------3--0--|-----0--2-2-0--0-0-0--2-2-0--|


  S S E  S S E  S S E  E  E     E  E  S S E  S S E  S S E
-----------------------------|-----------------------------|
-----------------------------|-----------------------------|
-----------------------------|-----------------------------|
-----------------------------|-----------------------------|
-----------------------------|-----------------------------|
--0-0-0--4-4-0--0-0-0--3--0--|-----0--2-2-0--0-0-0--2-2-0--|


  S S S S S S S S S S S S E  E     E  E  S S E  S S E  S S E
--------------------------------|-----------------------------|
--------------------------------|-----------------------------|
--------------------------------|-----------------------------|
--------------------------------|-----------------------------|
--------------------------------|-----------------------------|
--0-0-0-0-4-0-0-0-0-0-0-0-3--0--|-----0--2-2-0--0-0-0--2-2-0--|


  S S E  S S E  S S E  E  E     E  E  S S E  S S E  S S E
-----------------------------|-----------------------------|
-----------------------------|-----------------------------|
-----------------------------|-----------------------------|
-----------------------------|-----------------------------|
-----------------------------|-----------------------------|
--0-0-0--4-4-0--0-0-0--3--0--|-----0--2-2-0--0-0-0--2-2-0--|


  S S S S S S S S S S S S E  E     E  E  S S E  S S E  S S E
--------------------------------|-----------------------------|
--------------------------------|-----------------------------|
--------------------------------|-----------------------------|
--------------------------------|-----------------------------|
--------------------------------|-----------------------------|
--0-0-0-0-4-0-0-0-0-0-0-0-3--0--|-----0--2-2-0--0-0-0--2-2-0--|


  S S E  S S E  S S E  E  E     E  E  S S E  S S E  S S E
-----------------------------|-----------------------------|
-----------------------------|-----------------------------|
-----------------------------|-----------------------------|
-----------------------------|-----------------------------|
-----------------------------|-----------------------------|
--0-0-0--4-4-0--0-0-0--3--0--|-----0--2-2-0--0-0-0--2-2-0--|


  S S S S S S S S S S S S E  E     E  E  S S E  S S E  S S E
--------------------------------|-----------------------------|
--------------------------------|-----------------------------|
--------------------------------|-----------------------------|
--------------------------------|-----------------------------|
--------------------------------|-----------------------------|
--0-0-0-0-4-0-0-0-0-0-0-0-3--0--|-----0--2-2-0--0-0-0--2-2-0--|


  S S E  S S E  S S E  E  E     E  E  S S E  S S E  S S E
-----------------------------|-----------------------------|
-----------------------------|-----------------------------|
-----------------------------|-----------------------------|
-----------------------------|-----------------------------|
-----------------------------|-----------------------------|
--0-0-0--4-4-0--0-0-0--3--0--|-----0--2-2-0--0-0-0--2-2-0--|


  S S S S S S S S S S S S E  E     E  E  E  E  E  E  E  E
--------------------------------|--------------------------|
--------------------------------|--------------------------|
--------------------------------|--------------------------|
--------------------------------|--------------------------|
--------------------------------|--------9-----8-----6--8--|
--0-0-0-0-4-0-0-0-0-0-0-0-3--0--|-----0--7--0--6--0--4--6--|


  E  E  E  E  E  E  E  E     E  E  E  E  E  E  E  E
--------------------------|--------------------------|
--------------------------|--------------------------|
--------------------------|--------------------------|
--------------------------|--------------------------|
--9-----8-----5--6--7-----|--------9-----8-----6--8--|
--7--0--6--0--3--4--5--0--|-----0--7--0--6--0--4--6--|


  E  E  E  E  E  E  E  E     E  E  E  E  E  E  E  E
--------------------------|--------------------------|
--------------------------|--------------------------|
--------------------------|--------------------------|
--------------------------|--------------------------|
--9-----8-----5--6--7-----|--------9-----8-----6--8--|
--7--0--6--0--3--4--5--0--|-----0--7--0--6--0--4--6--|


  E  E  E  E  E  E  E  E     E  E  E  E  E  E  E  E
--------------------------|--------------------------|
--------------------------|--------------------------|
--------------------------|--------------------------|
--------------------------|--------------------------|
--9-----8-----5--6--7-----|--------9-----8-----6--8--|
--7--0--6--0--3--4--5--0--|-----0--7--0--6--0--4--6--|


              |----3----|
  E  E  E  E  Q    Q    Q       E  E  E  E  E  E  E  E
-----------------------------|--------------------------|
-----------------------------|--------------------------|
-----------------------------|--------------------------|
--------------6---------6----|--------------------------|
--9-----8-----4----6----4----|--------------------------|
--7--0--6--0-------4---------|--0--0--0--0--0--0--0--0--|


  E  E  E  E  E  Q    E     E  E  E  E  E  E  E  E     E  E  E  E  E  Q    E
-------------------------|--------------------------|-------------------------|
-------------------------|--------------------------|-------------------------|
-------------------------|--------------------------|-------------------------|
-------------------------|--------------------------|-------------------------|
-----------------5----6--|--------------------------|-----------------3----4--|
--0--0--0--0--0--3----4--|--0--0--0--0--0--0--0--0--|--0--0--0--0--0--1----2--|


  E  E  E  E  E  E  E  E     E  E  E  E  E  Q    E     E  E  E  E  E  E  E  E
--------------------------|-------------------------|--------------------------|
--------------------------|-------------------------|--------------------------|
--------------------------|-------------------------|--------------------------|
--------------------------|-------------------------|--------------------------|
--------------------------|-----------------5----6--|--------------------------|
--0--0--0--0--0--0--0--0--|--0--0--0--0--0--3----4--|--0--0--0--0--0--0--0--0--|


              |----3----|
  E  E  E  E  Q    Q    Q       E  E  E  E  E  E  E  E
-----------------------------|--------------------------|
-----------------------------|--------------------------|
-----------------------------|--------------------------|
--------------8---------8----|--------5--3--------5--3--|
--------------6----8----6----|--------3--1--------3--1--|
--0--0--0--0-------6---------|--0--0--------0--0--------|


              |----3----|
  E  E  E  E  Q    Q    Q       E  E  E  E  E  E  E  E
-----------------------------|--------------------------|
-----------------------------|--------------------------|
-----------------------------|--------------------------|
--------5--3--6---------6----|--------5--3--------5--3--|
--------3--1--4----6----4----|--------3--1--------3--1--|
--0--0-------------4---------|--0--0--------0--0--------|


              |----3----|
  E  E  E  E  Q    Q    Q       E  E  E  E  E  E  E  E
-----------------------------|--------------------------|
-----------------------------|--------------------------|
-----------------------------|--------------------------|
--------5--3--8---------8----|--------5--3--------5--3--|
--------3--1--6----8----6----|--------3--1--------3--1--|
--0--0-------------6---------|--0--0--------0--0--------|


              |----3----|
  E  E  E  E  Q    Q    Q       E  E  E  E  E  E  E  E
-----------------------------|--------------------------|
-----------------------------|--------------------------|
-----------------------------|--------------------------|
--------5--3--6---------6----|--------5--3--------5--3--|
--------3--1--4----6----4----|--------3--1--------3--1--|
--0--0-------------4---------|--0--0--------0--0--------|


              |----3----|
  E  E  E  E  Q    Q    Q       E  E  E  E  E  E  E  E
-----------------------------|--------------------------|
-----------------------------|--------------------------|
-----------------------------|--------------------------|
--------5--3-----------------|--------------------------|
--------3--1--6----7----8----|--------------------------|
--0--0--------4----5----6----|--0--0--0--0--0--0--0--0--|


  E  E  E  E  E  Q    E     E  E  E  E  E  E  E  E     E  E  E  E  E  Q    E
-------------------------|--------------------------|-------------------------|
-------------------------|--------------------------|-------------------------|
-------------------------|--------------------------|-------------------------|
-------------------------|--------------------------|-------------------------|
-----------------5----6--|--------------------------|-----------------3----4--|
--0--0--0--0--0--3----4--|--0--0--0--0--0--0--0--0--|--0--0--0--0--0--1----2--|


  E  E  E  E  E  E  E  E     E  E  E  E  E  Q    E     W
--------------------------|-------------------------|-------------------|
--------------------------|-------------------------|-------------------|
--------------------------|-------------------------|-------------------|
--------------------------|-------------------------|-------------------|
--------------------------|-----------------5----6--|-------------------|
--0--0--0--0--0--0--0--0--|--0--0--0--0--0--3----4--|-------------------|


  E  E  E  E  E  Q    E     E  E  E  E  E  E  E  E     E  E  E  E  E  E  E  E
-------------------------|--------------------------|--------------------------|
-------------------------|--------------------------|--------------------------|
-------------------------|--------------------------|--------------------------|
--------------4--2----5--|--6--6--6-----------------|-----------3--4--4--4--5--|
-----3-----3-----0----3--|--4--4--4--7--8--8--8--4--|--5--5--5--1--2--2--2--3--|
--------3----------------|-----------5--6--6--6--2--|--3--3--3-----------------|


  E  E  E  E  E  E  E  E     E  E  E  E  E  E  E  E
--------------------------|--------------------------|
--------------------------|--------------------------|
--------------------------|--------------------------|
--6--6--6-----------------|-----------------------5--|
--4--4--4--7--8--8--6--4--|-----2-----2-----2-----3--|
-----------5--6--6--4--2--|--0--0--0--0--0--0--0-----|


  E  E  E  E  E  E  E  E     E  E  E  E  E  E  E  E
--------------------------|--------------------------|
--------------------------|--------------------------|
--------------------------|--------------------------|
--6--6--6-----------------|-----------3--4--4--4--5--|
--4--4--4--7--8--8--8--4--|--5--5--5--1--2--2--2--3--|
-----------5--6--6--6--2--|--3--3--3-----------------|


  E  E  E  E  E  E  E  E     E  E  S S E  S S E  S S E
--------------------------|-----------------------------|
--------------------------|-----------------------------|
--------------------------|-----------------------------|
--6--6--6-----------------|-----------------------------|
--4--4--4--7--8--8--4-----|-----------------------------|
-----------5--6--6--2--0--|-----0--2-2-0--0-0-0--2-2-0--|


  S S E  S S E  S S E  E  E     E  E  S S E  S S E  S S E
-----------------------------|-----------------------------|
-----------------------------|-----------------------------|
-----------------------------|-----------------------------|
-----------------------------|-----------------------------|
-----------------------------|-----------------------------|
--0-0-0--4-4-0--0-0-0--3--0--|-----0--2-2-0--0-0-0--2-2-0--|


  S S S S S S S S S S S S E  E     E  E  S S E  S S E  S S E
--------------------------------|-----------------------------|
--------------------------------|-----------------------------|
--------------------------------|-----------------------------|
--------------------------------|-----------------------------|
--------------------------------|-----------------------------|
--0-0-0-0-4-0-0-0-0-0-0-0-3--0--|-----0--2-2-0--0-0-0--2-2-0--|


  S S E  S S E  S S E  E  E     E  E  S S E  S S E  S S E
-----------------------------|-----------------------------|
-----------------------------|-----------------------------|
-----------------------------|-----------------------------|
-----------------------------|-----------------------------|
-----------------------------|-----------------------------|
--0-0-0--4-4-0--0-0-0--3--0--|-----0--2-2-0--0-0-0--2-2-0--|


  S S S S S S S S S S S S E  E     E  E  E  E  E  E  E  E
--------------------------------|--------------------------|
--------------------------------|--------------------------|
--------------------------------|--------------------------|
--------------------------------|--------------------------|
--------------------------------|--------9-----8-----6--8--|
--0-0-0-0-4-0-0-0-0-0-0-0-3--0--|-----0--7--0--6--0--4--6--|


  E  E  E  E  E  Q.        E  E  E  E  E  E  E  E     E  Q.     E  E  Q
------------------------|--------------------------|-----------------------|
------------------------|--------------------------|-----------------------|
------------------------|--------------------------|-----------------------|
------------------------|--------------------------|-----------------------|
--9-----8-----6--8------|--------9-----8-----6--8--|--9--8------4--5-------|
--7--0--6--0--4--6------|--0--0--7--0--6--0--4--6--|--7--6------2--3-------|


  H           E  E  E  E  E  E  E  E     E  E  E  E  E  Q    E
-----------|--------------------------|-------------------------|
-----------|--------------------------|-------------------------|
-----------|--------------------------|-------------------------|
-----------|--------------------------|-------------------------|
-----------|--------------------------|-----------------5----6--|
-----------|--0--0--0--0--0--0--0--0--|--0--0--0--0--0--3----4--|


  E  E  E  E  E  E  E  E     E  E  E  E  E  Q    E     E  E  E  E  E  E  E  E
--------------------------|-------------------------|--------------------------|
--------------------------|-------------------------|--------------------------|
--------------------------|-------------------------|--------------------------|
--------------------------|-------------------------|--------------------------|
--------------------------|-----------------3----4--|--------------------------|
--0--0--0--0--0--0--0--0--|--0--0--0--0--0--1----2--|--0--0--0--0--0--0--0--0--|


  E  E  E  E  E  Q    E     E  E  E  E  E  E  E  E
-------------------------|--------------------------|
-------------------------|--------------------------|
-------------------------|--------------------------|
-------------------------|--------------------------|
-----------------5----6--|--------------------------|
--0--0--0--0--0--3----4--|--0--0--0--0--0--0--0--0--|


              |----3----|
  E  E  E  E  Q    Q    Q       E  E  E  E  E  E  E  E
-----------------------------|--------------------------|
-----------------------------|--------------------------|
-----------------------------|--------------------------|
--------------8---------8----|--------5--3--------5--3--|
--------------6----8----6----|--------3--1--------3--1--|
--0--0--0--0-------6---------|--0--0--------0--0--------|


              |----3----|
  E  E  E  E  Q    Q    Q       E  E  E  E  E  E  E  E
-----------------------------|--------------------------|
-----------------------------|--------------------------|
-----------------------------|--------------------------|
--------5--3--6---------6----|--------5--3--------5--3--|
--------3--1--4----6----4----|--------3--1--------3--1--|
--0--0-------------4---------|--0--0--------0--0--------|


              |----3----|
  E  E  E  E  Q    Q    Q       E  E  E  E  E  E  E  E
-----------------------------|--------------------------|
-----------------------------|--------------------------|
-----------------------------|--------------------------|
--------5--3--8---------8----|--------5--3--------5--3--|
--------3--1--6----8----6----|--------3--1--------3--1--|
--0--0-------------6---------|--0--0--------0--0--------|


              |----3----|
  E  E  E  E  Q    Q    Q       E  E  E  E  E  E  E  E
-----------------------------|--------------------------|
-----------------------------|--------------------------|
-----------------------------|--------------------------|
--------5--3--6---------6----|--------5--3--------5--3--|
--------3--1--4----6----4----|--------3--1--------3--1--|
--0--0-------------4---------|--0--0--------0--0--------|


              |----3----|
  E  E  E  E  Q    Q    Q       E  E  E  E  E  E  E  E
-----------------------------|--------------------------|
-----------------------------|--------------------------|
-----------------------------|--------------------------|
--------5--3-----------------|--------------------------|
--------3--1--6----7----8----|--------------------------|
--0--0--------4----5----6----|--0--0--0--0--0--0--0--0--|


  E  E  E  E  E  Q    E     E  E  E  E  E  E  E  E     E  E  E  E  E  Q    E
-------------------------|--------------------------|-------------------------|
-------------------------|--------------------------|-------------------------|
-------------------------|--------------------------|-------------------------|
-------------------------|--------------------------|-------------------------|
-----------------5----6--|--------------------------|-----------------3----4--|
--0--0--0--0--0--3----4--|--0--0--0--0--0--0--0--0--|--0--0--0--0--0--1----2--|


  E  E  E  E  E  E  E  E     E  E  E  E  E  Q    E     W
--------------------------|-------------------------|-------------------|
--------------------------|-------------------------|-------------------|
--------------------------|-------------------------|-------------------|
--------------------------|-------------------------|-------------------|
--------------------------|-----------------5----6--|-------------------|
--0--0--0--0--0--0--0--0--|--0--0--0--0--0--3----4--|-------------------|


  E  E  E  E  E  Q    E     E  E  E  E  E  E  E  E     E  E  E  E  E  E  E  E
-------------------------|--------------------------|--------------------------|
-------------------------|--------------------------|--------------------------|
-------------------------|--------------------------|--------------------------|
--------------4--2----5--|--6--6--6-----------------|-----------3--4--4--4--5--|
-----3-----3-----0----3--|--4--4--4--7--8--8--8--4--|--5--5--5--1--2--2--2--3--|
--------3----------------|-----------5--6--6--6--2--|--3--3--3-----------------|


  E  E  E  E  E  E  E  E     E  E  E  E  E  E  E  E
--------------------------|--------------------------|
--------------------------|--------------------------|
--------------------------|--------------------------|
--6--6--6-----------------|-----------------------5--|
--4--4--4--7--8--8--6--4--|-----2-----2-----2-----3--|
-----------5--6--6--4--2--|--0--0--0--0--0--0--0-----|


  E  E  E  E  E  E  E  E     E  E  E  E  E  E  E  E
--------------------------|--------------------------|
--------------------------|--------------------------|
--------------------------|--------------------------|
--6--6--6-----------------|-----------3--4--4--4--5--|
--4--4--4--7--8--8--8--4--|--5--5--5--1--2--2--2--3--|
-----------5--6--6--6--2--|--3--3--3-----------------|


  E  E  E  E  E  E  E  E     E  E  S S E  S S E  S S E
--------------------------|-----------------------------|
--------------------------|-----------------------------|
--------------------------|-----------------------------|
--6--6--6-----------------|-----------------------------|
--4--4--4--7--8--8--4-----|-----------------------------|
-----------5--6--6--2--0--|-----0--2-2-0--0-0-0--2-2-0--|


  S S E  S S E  S S E  E  E     E  E  S S E  S S E  S S E
-----------------------------|-----------------------------|
-----------------------------|-----------------------------|
-----------------------------|-----------------------------|
-----------------------------|-----------------------------|
-----------------------------|-----------------------------|
--0-0-0--4-4-0--0-0-0--3--0--|-----0--2-2-0--0-0-0--2-2-0--|


  S S S S S S S S S S S S E  E     E  E  S S E  S S E  S S E
--------------------------------|-----------------------------|
--------------------------------|-----------------------------|
--------------------------------|-----------------------------|
--------------------------------|-----------------------------|
--------------------------------|-----------------------------|
--0-0-0-0-4-0-0-0-0-0-0-0-3--0--|-----0--2-2-0--0-0-0--2-2-0--|


  S S E  S S E  S S E  E  E     E  E  S S E  S S E  S S E
-----------------------------|-----------------------------|
-----------------------------|-----------------------------|
-----------------------------|-----------------------------|
-----------------------------|-----------------------------|
-----------------------------|-----------------------------|
--0-0-0--4-4-0--0-0-0--3--0--|-----0--2-2-0--0-0-0--2-2-0--|


  S S S S S S S S S S S S E  E     W                   H
--------------------------------|-------------------|-----------|
--------------------------------|-------------------|-----------|
--------------------------------|-------------------|-----------|
--------------------------------|-------------------|-----------|
--------------------------------|-------------------|-----------|
--0-0-0-0-4-0-0-0-0-0-0-0-3--0--|-------------------|-----------|


  E  E  E  E  E  E  Q       W                   E  E  E  E  E  E  Q
-------------------------|-------------------|-------------------------|
-------------------------|-------------------|-------------------------|
-------------------------|-------------------|-------------------------|
-------------------------|-------------------|-------------------------|
-----------6--------4----|--2----------------|-----------6--------4----|
--0--0--0--4--0--0--2----|--0----------------|--0--0--0--4--0--0--2----|


  W                   E  E  E  E  E  E  Q       W
-------------------|-------------------------|-------------------|
-------------------|-------------------------|-------------------|
-------------------|-------------------------|-------------------|
--5----------------|-------------------------|-------------------|
--3----------------|-----------6--------4----|--2----------------|
-------------------|--0--0--0--4--0--0--2----|--0----------------|


  E  E  E  E  E  E  Q       Q    Q    E  E  Q       E  E  E  E  E  E  Q
-------------------------|-----------------------|-------------------------|
-------------------------|-----------------------|-------------------------|
-------------------------|-----------------------|-------------------------|
-------------------------|--3----2---------------|-------------------------|
-----------6--------4----|--1----0----5--5--3----|-----------6--------4----|
--0--0--0--4--0--0--2----|------------3--3--1----|--0--0--0--4--0--0--2----|


  W                   E  E  E  E  E  E  Q       W
-------------------|-------------------------|-------------------|
-------------------|-------------------------|-------------------|
-------------------|-------------------------|-------------------|
-------------------|-------------------------|--5----------------|
--2----------------|-----------6--------4----|--3----------------|
--0----------------|--0--0--0--4--0--0--2----|-------------------|


  E  E  E  E  E  E  Q       W                   E  E  E  E  E  E  Q
-------------------------|-------------------|-------------------------|
-------------------------|-------------------|-------------------------|
-------------------------|-------------------|-------------------------|
-------------------------|-------------------|-----------5--------4----|
-----------6--------4----|--2----------------|--0--0--0--3--0--0--2----|
--0--0--0--4--0--0--2----|--0----------------|-------------------------|


  Q    Q    E  E  Q       E  E  E  E  E  E  Q       W
-----------------------|-------------------------|-------------------|
-----------------------|-------------------------|-------------------|
-----------------------|-------------------------|-------------------|
--3----2---------------|-------------------------|-------------------|
--1----0----5--5--3----|-----------6--------4----|--2----------------|
------------3--3--1----|--0--0--0--4--0--0--2----|--0----------------|


  E  E  E  E  E  E  Q       W                   E  E  E  E  E  E  Q
-------------------------|-------------------|-------------------------|
-------------------------|-------------------|-------------------------|
-------------------------|-------------------|-------------------------|
-------------------------|--5----------------|-------------------------|
-----------6--------4----|--3----------------|-----------6--------4----|
--0--0--0--4--0--0--2----|-------------------|--0--0--0--4--0--0--2----|


  W                   E  E  E  E  E  E  Q       Q    Q    E  E  Q
-------------------|-------------------------|-----------------------|
-------------------|-------------------------|-----------------------|
-------------------|-------------------------|-----------------------|
-------------------|-----------5--------4----|--3----2---------------|
--2----------------|--0--0--0--3--0--0--2----|--1----0----5--5--3----|
--0----------------|-------------------------|------------3--3--1----|


  E  E  E  E  E  E  Q       W                   E  E  E  E  E  E  Q
-------------------------|-------------------|-------------------------|
-------------------------|-------------------|-------------------------|
-------------------------|-------------------|-------------------------|
-------------------------|-------------------|-------------------------|
-----------6--------4----|--2----------------|-----------6--------4----|
--0--0--0--4--0--0--2----|--0----------------|--0--0--0--4--0--0--2----|


  W                   E  E  E  E  E  E  Q       W
-------------------|-------------------------|-------------------|
-------------------|-------------------------|-------------------|
-------------------|-------------------------|-------------------|
--5----------------|-------------------------|-------------------|
--3----------------|-----------6--------4----|--2----------------|
-------------------|--0--0--0--4--0--0--2----|--0----------------|


  E  E  E  E  E  E  Q       Q    Q    E  E  Q       E  E  E  E  E  E  E  E
-------------------------|-----------------------|--------------------------|
-------------------------|-----------------------|--------------------------|
-------------------------|-----------------------|--------------------------|
-----------5--------4----|--3----2---------------|--------------------------|
--0--0--0--3--0--0--2----|--1----0----5--5--3----|--2--2--2--5--2--2--2--2--|
-------------------------|------------3--3--1----|--0--0--0--3--0--0--0--0--|


  E  E  E  E  E  E  E  E     E  E  E  E  E  E  E  E
--------------------------|--------------------------|
--------------------------|--------------------------|
--------------------------|--------------------------|
--------------------------|--------------------------|
--2--5--2--2--2--2--2--2--|--2--2--2--5--2--2--2--2--|
--0--3--0--0--0--0--0--0--|--0--0--0--3--0--0--0--0--|


  E  E  E  E  E  E  E  E     E  E  E  E  E  E  E  E
--------------------------|--------------------------|
--------------------------|--------------------------|
--------------------------|--------------------------|
--------------------------|--------------------------|
--2--5--2--2--2--2--2--2--|--2--2--2--5--2--2--2--2--|
--0--3--0--0--0--0--0--0--|--0--0--0--3--0--0--0--0--|


  E  E  E  E  E  E  E  E     E  E  E  E  E  E  E  E      Q    Q    E  E  Q
--------------------------|--------------------------|------------------------|
--------------------------|--------------------------|------------------------|
--------------------------|--------------------------|------------------------|
--------------------------|--------------------------|------------------------|
--2--5--2--2--2--2--2--2--|--7--7--7--7--7--7--7--7--|--10----9----7--5--3----|
--0--3--0--0--0--0--0--0--|--5--5--5--5--5--5--5--5--|---8----7----5--3--1----|


  E  E  E  E  E  E  E  E     E  E  E  E  E  E  E  E
--------------------------|--------------------------|
--------------------------|--------------------------|
--------------------------|--------------------------|
--------------------------|--------------------------|
--2--2--2--5--2--2--2--2--|--2--5--2--2--2--2--2--2--|
--0--0--0--3--0--0--0--0--|--0--3--0--0--0--0--0--0--|


  E  E  E  E  E  E  E  E     E  E  E  E  E  E  E  E
--------------------------|--------------------------|
--------------------------|--------------------------|
--------------------------|--------------------------|
--------------------------|--------------------------|
--2--2--2--5--2--2--2--2--|--2--5--2--2--2--2--2--2--|
--0--0--0--3--0--0--0--0--|--0--3--0--0--0--0--0--0--|


  E  E  E  E  E  E  E  E     E  E  E  E  E  E  E  E
--------------------------|--------------------------|
--------------------------|--------------------------|
--------------------------|--------------------------|
--------------------------|--------------------------|
--2--2--2--5--2--2--2--2--|--2--5--2--2--2--2--2--2--|
--0--0--0--3--0--0--0--0--|--0--3--0--0--0--0--0--0--|


  E  E  E  E  E  E  E  E      Q    Q    E  E  Q       E  E  E  E  E  E  E  E
--------------------------|------------------------|--------------------------|
--------------------------|------------------------|--------------------------|
--------------------------|------------------------|--------------------------|
--------------------------|------------------------|--------------------------|
--7--7--7--7--7--7--7--7--|--10----9----7--5--3----|--4--2--2--5--2--2--4--2--|
--5--5--5--5--5--5--5--5--|---8----7----5--3--1----|--2--0--0--3--0--0--2--0--|


  E  E  E  E  E  E  E  E     E  E  E  E  E  E  E  E
--------------------------|--------------------------|
--------------------------|--------------------------|
--------------------------|--------------------------|
--------------------------|--------------------------|
--2--5--2--2--4--4--4--4--|--4--2--2--5--2--2--4--2--|
--0--3--0--0--2--2--2--2--|--2--0--0--3--0--0--2--0--|


  E  E  E  E  E  E  E  E     E  E  E  E  E  E  E  E
--------------------------|--------------------------|
--------------------------|--------------------------|
--------------------------|--------------------------|
--------------------------|--------------------------|
--2--5--2--2--4--4--4--4--|--4--2--2--5--2--2--4--2--|
--0--3--0--0--2--2--2--2--|--2--0--0--3--0--0--2--0--|


  E  E  E  E  E  E  E  E     E  E  E  E  E  E  E  E     E  Q    E  E  E  Q
--------------------------|--------------------------|------------------------|
--------------------------|--------------------------|------------------------|
--------------------------|--------------------------|------------------------|
--------------------------|--5--4--2-----------5--4--|--2----------5--4--2----|
--2--5--2--2--4--4--4--4--|--3--2--0--4--L--2--3--2--|--0--4----2--3--2--0----|
--0--3--0--0--2--2--2--2--|-----------2--L--0--------|-----2----0-------------|


  E  E  E  E  E  E  E  E     E  E  E  E  E  E  E  E
--------------------------|--------------------------|
--------------------------|--------------------------|
--------------------------|--------------------------|
--------------------------|--------------------------|
--4--2--2--5--2--2--4--2--|--2--5--2--2--4--4--4--4--|
--2--0--0--3--0--0--2--0--|--0--3--0--0--2--2--2--2--|


  E  E  E  E  E  E  E  E     E  E  E  E  E  E  E  E
--------------------------|--------------------------|
--------------------------|--------------------------|
--------------------------|--------------------------|
--------------------------|--------------------------|
--4--2--2--5--2--2--4--2--|--2--5--2--2--4--4--4--4--|
--2--0--0--3--0--0--2--0--|--0--3--0--0--2--2--2--2--|


  E  E  E  E  E  E  E  E     E  E  E  E  E  E  E  E
--------------------------|--------------------------|
--------------------------|--------------------------|
--------------------------|--------------------------|
--------------------------|--------------------------|
--4--2--2--5--2--2--4--2--|--2--5--2--2--4--4--4--4--|
--2--0--0--3--0--0--2--0--|--0--3--0--0--2--2--2--2--|


  E  E  E  E  E  E  E  E     E  Q    E  E  E  Q       E  E  E  E  E  E  E  E
--------------------------|------------------------|--------------------------|
--------------------------|------------------------|--------------------------|
--------------------------|------------------------|--------------------------|
--5--4--2-----------5--4--|--2----------5--4--2----|--------------------------|
--3--2--0--4--L--2--3--2--|--0--4----2--3--2--0----|--4--2--2--5--2--2--4--2--|
-----------2--L--0--------|-----2----0-------------|--2--0--0--3--0--0--2--0--|


  E  E  E  E  E  E  E  E     E  E  E  E  E  E  E  E
--------------------------|--------------------------|
--------------------------|--------------------------|
--------------------------|--------------------------|
--------------------------|--------------------------|
--2--5--2--2--4--4--4--4--|--4--2--2--5--2--2--4--2--|
--0--3--0--0--2--2--2--2--|--2--0--0--3--0--0--2--0--|


  E  E  E  E  E  E  E  E     E  E  E  E  E  E  E  E
--------------------------|--------------------------|
--------------------------|--------------------------|
--------------------------|--------------------------|
--------------------------|--------------------------|
--2--5--2--2--4--4--4--4--|--4--2--2--5--2--2--4--2--|
--0--3--0--0--2--2--2--2--|--2--0--0--3--0--0--2--0--|


  E  E  E  E  E  E  E  E     E  E  E  E  E  E  E  E     E  Q    E  E  E  Q
--------------------------|--------------------------|------------------------|
--------------------------|--------------------------|------------------------|
--------------------------|--------------------------|------------------------|
--------------------------|--5--4--2-----------5--4--|--2----------5--4--2----|
--2--5--2--2--4--4--4--4--|--3--2--0--4--L--2--3--2--|--0--4----2--3--2--0----|
--0--3--0--0--2--2--2--2--|-----------2--L--0--------|-----2----0-------------|


  E  E  E  E  E  E  E  E     E  E  E  E  E  E  E  E
--------------------------|--------------------------|
--------------------------|--------------------------|
--------------------------|--------------------------|
--------------------------|--------------------------|
--4--2--2--5--2--2--4--2--|--2--5--2--2--4--4--4--4--|
--2--0--0--3--0--0--2--0--|--0--3--0--0--2--2--2--2--|


  E  E  E  E  E  E  E  E     E  E  E  E  E  E  E  E
--------------------------|--------------------------|
--------------------------|--------------------------|
--------------------------|--------------------------|
--------------------------|--------------------------|
--4--2--2--5--2--2--4--2--|--2--5--2--2--4--4--4--4--|
--2--0--0--3--0--0--2--0--|--0--3--0--0--2--2--2--2--|


  E  E  E  E  E  E  E  E     E  E  E  E  E  E  E  E
--------------------------|--------------------------|
--------------------------|--------------------------|
--------------------------|--------------------------|
--------------------------|--------------------------|
--4--2--2--5--2--2--4--2--|--2--5--2--2--4--4--4--4--|
--2--0--0--3--0--0--2--0--|--0--3--0--0--2--2--2--2--|


  E  E  E  E  E  E  E  E     E  Q    E  E  E  Q       E  E  E  E  E  E  E  E
--------------------------|------------------------|--------------------------|
--------------------------|------------------------|--------------------------|
--------------------------|------------------------|--------------------------|
--5--4--2-----------5--4--|--2----------5--4--2----|--5--4--2-----------5--4--|
--3--2--0--4--L--2--3--2--|--0--4----2--3--2--0----|--3--2--0--4--L--2--3--2--|
-----------2--L--0--------|-----2----0-------------|-----------2--L--0--------|


  E  Q    E  E  E  Q       W                   E  E  S S E  S S E  S S E
------------------------|-------------------|-----------------------------|
------------------------|-------------------|-----------------------------|
------------------------|-------------------|-----------------------------|
--2----------5--4--2----|-------------------|-----------------------------|
--0--4----2--3--2--0----|--5----------------|-----------------------------|
-----2----0-------------|--3----------------|-----0--2-2-0--0-0-0--2-2-0--|


  S S E  S S E  S S E  E  E     E  E  S S E  S S E  S S E
-----------------------------|-----------------------------|
-----------------------------|-----------------------------|
-----------------------------|-----------------------------|
-----------------------------|-----------------------------|
-----------------------------|-----------------------------|
--0-0-0--4-4-0--0-0-0--3--0--|-----0--2-2-0--0-0-0--2-2-0--|


  S S S S S S S S S S S S E  E     E  E  S S E  S S E  S S E
--------------------------------|-----------------------------|
--------------------------------|-----------------------------|
--------------------------------|-----------------------------|
--------------------------------|-----------------------------|
--------------------------------|-----------------------------|
--0-0-0-0-4-0-0-0-0-0-0-0-3--0--|-----0--2-2-0--0-0-0--2-2-0--|


  S S E  S S E  S S E  E  E     E  E  S S E  S S E  S S E
-----------------------------|-----------------------------|
-----------------------------|-----------------------------|
-----------------------------|-----------------------------|
-----------------------------|-----------------------------|
-----------------------------|-----------------------------|
--0-0-0--4-4-0--0-0-0--3--0--|-----0--2-2-0--0-0-0--2-2-0--|


  S S S S S S S S S S S S E  E     E  E  S S E  S S E  S S E
--------------------------------|-----------------------------|
--------------------------------|-----------------------------|
--------------------------------|-----------------------------|
--------------------------------|-----------------------------|
--------------------------------|-----------------------------|
--0-0-0-0-4-0-0-0-0-0-0-0-3--0--|-----0--2-2-0--0-0-0--2-2-0--|


  S S E  S S E  S S E  S S E     S S S S S S S S S S S S S S S S
------------------------------|----------------------------------|
------------------------------|----------------------------------|
------------------------------|----------------------------------|
------------------------------|----------------------------------|
------------------------------|--5-6-6-6-6-6-6-6-6-6-6-6-6-6-6-6-|
--0-0-0--2-2-0--0-0-0--2-2-0--|--3-4-4-4-4-4-4-4-4-4-4-4-4-4-4-4-|


  S S S S S S S S S S S S S S S S    E  E  S S E  S S E  S S E
----------------------------------|-----------------------------|
----------------------------------|-----------------------------|
----------------------------------|-----------------------------|
----------------------------------|-----------------------------|
--6-6-6-6-6-6-6-6-6-7-7-7-7-7-7-7-|-----------------------------|
--4-4-4-4-4-4-4-4-4-5-5-5-5-5-5-5-|--0--0--2-2-0--0-0-0--2-2-0--|


  E  E  S S E  S S E  S S E     S S S S S S S S S S S S S S S S
-----------------------------|----------------------------------|
-----------------------------|----------------------------------|
-----------------------------|----------------------------------|
-----------------------------|----------------------------------|
-----------------------------|--5-6-6-6-6-6-6-6-6-6-6-6-6-6-6-6-|
--0--0--2-2-0--0-0-0--2-2-0--|--3-4-4-4-4-4-4-4-4-4-4-4-4-4-4-4-|


                                     |----3----|    |----3----|
  S S S S S S S S S S S S S S S S    Q    Q    Q    Q    Q    Q
----------------------------------|--------------------------------|
----------------------------------|--------------------------------|
----------------------------------|--------------------------------|
----------------------------------|--5----7----6----8---------9----|
--6-6-6-6-6-6-6-6-6-7-7-7-7-7-7-7-|--3----5----4----6----8----7----|
--4-4-4-4-4-4-4-4-4-5-5-5-5-5-5-5-|----------------------6---------|


  E  E  Q    H
----------------------||
----------------------||
----------------------||
--2-------------------||
--2-------------------||
--0-------------------||

						$$$$
					******************
		!!!!!!!!!!!!!!!!!!!!!!!!!!!!!!!!!!!!!!!!!!!!!!!!!!!!!!!!!!!!!!!!!!!!!!
						SOLO
		!!!!!!!!!!!!!!!!!!!!!!!!!!!!!!!!!!!!!!!!!!!!!!!!!!!!!!!!!!!!!!!!!!!!!!
					******************
						$$$$

  W                      W                   Q    E  E  E  E  E  E
--0pbr----------------|--L----------------|-------------------------|
----------------------|-------------------|-------------------------|
----------------------|-------------------|-------------4--3--2-----|
----------------------|-------------------|-------2--3-----------5--|
----------------------|-------------------|-------------------------|
----------------------|-------------------|-------------------------|


  W                     Q     E   E   E   E   E   E
--------------------|--22----17--19--19b--L--17------|
--4~----------------|--24----19--20--20b--L--19--20--|
--------------------|----------------------------21--|
--------------------|--------------------------------|
--------------------|--------------------------------|
--------------------|--------------------------------|


                                                     |---3---|
   E   E   E   E   E   E   E   E      H.             E   E   E
----------22----------------------|--18b------------17--18--17--|
--20b--L------17--17b--L--15--17--|-----------------------------|
--21b--L--------------------------|--20b------------19--20--19--|
----------21--22--22b--L--21--21--|-----------------------------|
----------------------------------|-----------------------------|
----------------------------------|-----------------------------|


   W                   W                      W
--------------------|----------------------|-------------------|
--18----------------|--6pbr----------------|--L----------------|
--------------------|--6pbr----------------|--L----------------|
--20----------------|----------------------|-------------------|
--------------------|----------------------|-------------------|
--------------------|----------------------|-------------------|


  Q    E  E  E  E  E  E     W
-------------------------|--------------------|
-------------------------|--4~----------------|
-------------4--3--2-----|--------------------|
-------2--3-----------5--|--------------------|
-------------------------|--------------------|
-------------------------|--------------------|


   |---3---|   |---3---|   |---3---|
   E   E   E   E   E   E   E   E   E   S  S  S  S
--22--20--19--20--19--22--20--19--17--19-17-------|
--20--19--17--19--17------19--17------17----20-19-|
----------------------19----------19-----19-17-16-|
--------------------------------------------------|
--------------------------------------------------|
--------------------------------------------------|


   |---3---|   |---3---|   |---3---|   |---3---|
   E   E   E   E   E   E   E   E   E   E   E   E
--17----------------------------------------------|
------20--19--20--19--17--20--19--17--17----------|
--19--17--16--17--16------17--16------16--19--17--|
----------------------19----------19------17--16--|
--------------------------------------------------|
--------------------------------------------------|


   |---3---|   |---3---|   |---3---|
   E   E   E   E   E   E   E   E   E   S  S  S  S
--------------------------------------------------|
--17----------------------------------------------|
------19--17--19--17--16--19--17--16--17-16-------|
--19--17--16--17--16------17--16------16----19-17-|
----------------------19----------19-----19-17-15-|
--------------------------------------------------|


   |---3---|
   E   E   E   S  S  S  S  H            W                   W
-------------------------------------|-------------------|-------------------|
-------------------------------------|-------------------|-------------------|
--16---------------------------------|-------------------|-------------------|
------19--17--19-17-16-17-14b--------|-------------------|-------------------|
--19--17--15--17-15-14-15-12b--------|-------------------|-------------------|
-------------------------------------|-------------------|-------------------|
Tap to rate this tab
# A B C D E F G H I J K L M N O P Q R S T U V W X Y Z