Guitaretab - guitar tabs
Song name
# A B C D E F G H I J K L M N O P Q R S T U V W X Y Z

Pantera - Primal Concrete Sledge tab

|----------------------------|----------------------------|
|----------------------------|----------------------------|
|----------------------------|----------------------------|
|----------------------------|----------------------------|
|--0-0-0--0-0-0---0-0--0-0-0-|-0-0-0---0-0--0-0-0--0-0-0--|
|--0-0-0--0-0-0---0-0--0-0-0-|-0-0-0---0-0--0-0-0--0-0-0--|
   |_|_|  |_|_|   |_|  |_|_|   |_|_|   |_|  |_|_|  |_|_|

|---------------------------|----------------------------|
|---------------------------|----------------------------|
|---------------------------|----------------------------|
|---------------------------|----------------------------|
|---0-0--0-0-0--0-0-0---0-0-|-0-0-0--0-0-0---0-0---------|
|---0-0--0-0-0--0-0-0---0-0-|-0-0-0--0-0-0---0-0--/15----|
    |_|  |_|_|  |_|_|   |_|   |_|_|  |_|_|   |_|

|------------------------------|------------------------------|
|------------------------------|------------------------------|
|------------------------------|------------------------------|
|------------------------------|------------------------------|
|--0---5---5--6---3---4--4---1-|-0--5/7--7--6--3----4--4---1--|
|--0---5---5--6---3---4--4---1-|-0--5/7--7--6--3----4--4---1--|
   |___|   |__|   |___|  |___|   |____|  |__|  |____|  |___|

|-------------------------------|-------------------------------|
|-------------------------------|-------------------------------|
|-------------------------------|-------------------------------|
|-------------------------------|-------------------------------|
|--0----5---5--6---3---4--4---1-|-0---5/7---7--6-------1--------|
|--0----5---5--6---3---4--4---1-|-0---5/7---7--6-------1--------|
   |____|   |__|   |___|  |___|   |_____|   |__|

|----------------------------|----------------------------|
|----------------------------|----------------------------|
|----------------------------|----------------------------|
|----------------------------|----------------------------|
|--0-0-0--0-0-0---0-0--0-0-0-|-0-0-0---0-0--0-0-0--0-0-0--|
|--0-0-0--0-0-0---0-0--0-0-0-|-0-0-0---0-0--0-0-0--0-0-0--|
   |_|_|  |_|_|   |_|  |_|_|   |_|_|   |_|  |_|_|  |_|_|

|---------------------------|----------------------------|
|---------------------------|----------------------------|
|---------------------------|----------------------------|
|---------------------------|----------------------------|
|---0-0--0-0-0--0-0-0---0-0-|-0-0-0--0-0-0---0-0--0-0-0--|
|---0-0--0-0-0--0-0-0---0-0-|-0-0-0--0-0-0---0-0--0-0-0--|
    |_|  |_|_|  |_|_|   |_|   |_|_|  |_|_|   |_|  |_|_|

|----------------------------|---------------------------|
|----------------------------|---------------------------|
|----------------------------|---------------------------|
|----------------------------|---------------------------|
|--0-0-0---0-0--0-0-0--0-0-0-|--0-0--0-0-0--0-0-0---0-0--|
|--0-0-0---0-0--0-0-0--0-0-0-|--0-0--0-0-0--0-0-0---0-0--|
   |_|_|   |_|  |_|_|  |_|_|    |_|  |_|_|  |_|_|   |_|

|----------------------------|---------------------|
|----------------------------|---------------------|
|----------------------------|---------------------|
|----------------------------|---------------------|
|--0-0-0--0-0-0---0-0--0-0-0-|-0-0-0---0-0--0-0-0--|
|--0-0-0--0-0-0---0-0--0-0-0-|-0-0-0---0-0--0-0-0--|
   |_|_|  |_|_|   |_|  |_|_|   |_|_|   |_|  |_|_|

|------------------------------|------------------------------|
|------------------------------|------------------------------|
|------------------------------|------------------------------|
|------------------------------|------------------------------|
|--0---5---5--6---3---4--4---1-|-0--5/7--7--6--3----4--4---1--|
|--0---5---5--6---3---4--4---1-|-0--5/7--7--6--3----4--4---1--|
   |___|   |__|   |___|  |___|   |____|  |__|  |____|  |___|

After measure 25 repeat back from measure 13
|-------------------------------|--------------------------|------|
|-------------------------------|--------------------------|------|
|-------------------------------|--------------------------|------|
|-------------------------------|--------------------------|------|
|--0----5---5--6---3---4--4---1-|-0---5/7---7--6---3----2--|--1---|
|--0----5---5--6---3---4--4---1-|-0---5/7---7--6---3----2--|--1---|
   |____|   |__|   |___|  |___|   |_____|   |__|   |____|          

|--------------------------------------------|
|--------------------------------------------|
|--------------------------------------------|
|--4-5-4----4---4-5-4----4-------------------|
|--|-|-|--8-|---|-|-|--6-|-------------------|
|--|-|-|--|-|---|-|-|--|-|---0--0-0--0--0-0--|
   |_|_|__|_|   |_|_|__|_|   |__|_|  |__|_|

|--------------------------------------------|
|--------------------------------------------|
|--------------------------------------------|
|--5-6-5----5---4-5-4----4-------------------|
|--|-|-|--9-|---|-|-|--6-|-------------------|
|--|-|-|--|-|---|-|-|--|-|---0--0-0--0--0-0--|
   |_|_|__|_|   |_|_|__|_|   |__|_|  |__|_|

|--------------------------------------------|
|--------------------------------------------|
|--------------------------------------------|
|--4-5-4----4---4-5-4----4-------------------|
|--|-|-|--8-|---|-|-|--6-|-------------------|
|--|-|-|--|-|---|-|-|--|-|---0--0-0--0--0-0--|
   |_|_|__|_|   |_|_|__|_|   |__|_|  |__|_|
[ Tab from: http://www.guitaretab.com/p/pantera/14125.html ]
At the end of measure 29 repeat from 26
|---------------------------------------------------|
|---------------------------------------------------|
|---------------------------------------------------|
|--5-6-5----5---6-5----5-6-5-----5-6-5-----6-8-6\5--|
|--|-|-|--8-|---|-|-8--|-|-|---8-|-|-|-9---|-|-|-|--|
|--|-|-|--|-|---|-|-|--|-|-|---|-|-|-|-|---|-|-|-|--|
   |_|_|__|_|   |_|_|__|_|_|   |_|_|_|_|   |_|_|_|

|-------------------|------------------|------------------|---------------|
|-------------------|------------------|------------------|---------------|
|-------------------|------------------|------------------|---------------|
|-------------------|------------------|------------------|---------------|
|--5---5-6----5-----|-5---5-4----5-----|-5---5-6----5-----|---1----1---1--|
|--0-0-0-0--0-0-0-0-|-0-0-0-0--0-0-0-0-|-0-0-0-0--0-0-0-0-|-0-1----1---1--|
   |_|_|_|  |_|_|_|   |_|_|_|  |_|_|_    |_|_|_|  |_|_|_|   |_|

|-------------------------|-----------------|------------------|
|-------------------------|-----------------|------------------|
|-------------------------|-----------------|------------------|
|-------------------------|-----------------|------------------|
|--5-----5-6-----5--------|-5---5-4---5-----|-5---5-6---5------|
|--0-0---0-0---0-0---0-0--|-0-0-0-0-0-0-0-0-|-0-0-0-0-0-0-0-0--|
   |_|___|_|   |_|___|_|    |_|_|_| |_|_|_|   |_|_|_| |_|_|_|

Repeat at the end of this measure from 34
|-----------------------------------|
|-----------------------------------|
|-----------------------------------|
|-----------------------------------|
|-----------------------------------|
|--0-1-3-1-0-0---1-3-1-0---1-3-1-0--|
   |_|_|_| |_|   |_|_|_|   |_|_|_|

GUITAR SOLO!!!!!
|--11-10-8-10-8-6-10-8-6-8-6-5-----5----------------------------|
|--|--|--|-|--|-|-|--|-|-|-|-|-8-7-|-8-7-8-7-6-8-7-6-7-6--------|
|--|--|--|-|--|-|-|--|-|-|-|-|-|-|-|-|-|-|-|-|-|-|-|-|-|-8-7-6--|
|--|--|--|-|--|-|-|--|-|-|-|-|-|-|-|-|-|-|-|-|-|-|-|-|-|-|-|-|--|
|--|--|--|-|--|-|-|--|-|-|-|-|-|-|-|-|-|-|-|-|-|-|-|-|-|-|-|-|--|
|--|--|--|-|--|-| |--|-|-|-|-|-|-| |-|-|-|-|-|-|-|-|-|-|-|-|-|--|
   |__|__|_|__|_| |__|_|_|_|_|_|_| |_|_|_|_|_| |_|_|_|_|_|_|_|

|-------------------------------------------------------|
|-------------------------------------------------------|
|--8-7-5-7-5---7-5---5----------------------------------|
|--|-|-|-|-|-8-|-|-8-|-8-7-5\4-7-5-4-5-4---5-4---4------|
|--|-|-|-|-|-|-|-|-|-|-|-|-|-|-|-|-|-|-|-6-|-|-6-|-6-5--|
|--|-|-|-|-|-|-|-|-|-|-|-|-|-|-|-|-|-|-|-|-|-|-|-|-|-|--|
   |_|_|_|_|_| |_|_|_|_|_|_|_| |_|_|_|_|_| |_|_|_|_|_|

|--------------------|-------------------|
|--------------------|-------------------|
|--------------------|-------------------|
|--------------------|-------------------|
|--0-----------------|-0-----------------|
|--0-----------------|-0-----------------|

|-------------------|-----------------------|----------------------|
|-------------------|-----------------------|----------------------|
|-------------------|-----------------------|----------------------|
|-------------------|-----------------------|----------------------|
|--0-0-0-0--0-0-0-0-|-0--1--1-3---4---5---6-|-6-7---4/6--5---3--1--|
|--0-0-0-0--0-0-0-0-|-0--1--1-3---4---5---6-|-6-7---4/6--5---3--1--|
   |_|_|_|  |_|_|_|   |__|  |_|   |___|       |_|     |__|   |__|

|----------------------------|----------------------------|
|----------------------------|----------------------------|
|----------------------------|----------------------------|
|----------------------------|----------------------------|
|--0-0-0--0-0-0---0-0--0-0-0-|-0-0-0---0-0--0-0-0--0-0-0--|
|--0-0-0--0-0-0---0-0--0-0-0-|-0-0-0---0-0--0-0-0--0-0-0--|
   |_|_|  |_|_|   |_|  |_|_|   |_|_|   |_|  |_|_|  |_|_|

|---------------------------|-------------------------------|
|---------------------------|-------------------------------|
|---------------------------|-------------------------------|
|---------------------------|-------------------------------|
|---0-0--0-0-0--0-0-0---0-0-|--0-0--------------------------|
|---0-0--0-0-0--0-0-0---0-0-|--0-0-/12---/12---12--12---12--|
    |_|  |_|_|  |_|_|   |_|    |_|__|     |_____|  |_____|

|------------------------|---------------------------|
|------------------------|---------------------------|
|------------------------|---------------------------|
|------------------------|---------------------------|
|--0--5--5--6--3--4-4--1-|-0-5/7--7--6---3---4-4--1--|
|--0--5--5--6--3--4-4--1-|-0-5/7--7--6---3---4-4--1--|
   |_|   |__|  |__| |__|   |___|  |__|   |___| |__|

|----------------------------|
|----------------------------|
|----------------------------|
|----------------------------|
|--0--5--5-6---3---4--4---1--|
|--0--5--5-6---3---4--4---1--|
   |__|  |_|   |___|  |___|

After this measure repeat back to 38
|----------------------------------|
|----------------------------------|
|----------------------------------|
|----------------------------------|
|--0--5/7--7--6---3/5---4----3--1--|
|--0--5/7--7--6---3/5---4----3--1--|
   |____|  |__|     |___|    |__|

|-------------------------------------|
|-------------------------------------|
|-------------------------------------|
|-------------------------------------|
|--0--5/7--7--6---3/5---4----3--2--1--|
|--0--5/7--7--6---3/5---4----3--2--1--|
   |____|  |__|     |___|    |__|__|
Related for Primal Concrete Sledge tab
Advertisement will be closed in 10 seconds