Song name
# A B C D E F G H I J K L M N O P Q R S T U V W X Y Z

Pantera - Hollow tab

Author/Artist: Pantera
Title: Hollow
Album: Vulgar Display Of Power

Here is the way I play this song:
Tune down half step: Eb Ab Db Gb Bb Eb
* = rest
h= hammer on
p= pull off
b= bend string up
br=bend up and release
/= slide up
\= slide down
v= vibrato
^= harmonic


-|--------------|------------10v|-10--10v--10----|--------------|-------------|
-|--------------|----8-*-12*----|--------------12|--------------|-----8-------|
-|-------------9|*-9------------|----------------|-------------9|*-9--------9-|
-|-7--*-7--10---|---------------|----------------|-7--*-7--10---|-------------|
-|--------------|---------------|----------------|--------------|-------10v---|
-|--------------|---------------|----------------|--------------|-------------|
Here's is the intro to the song. It is best if you use a harmonizer.

-|-------|--------------|------7---10--10v|10-10v-10---|----------|-----------|
-|-------|-------------8|-*-8--8-*-12-----|----------12|---------8|-8----8----|
-|-------|-5--*-5---9--9|---9-------------|------------|5---5--9-9|*9----9----|
-|-----10|-7----7--10---|-----------------|------------|7-*-7-10--|----9---8--|
-|-9v----|--------------|-----------------|------------|----------|---10v--9v-|
-|-------|--------------|-----------------|------------|----------|-----------|
          Or if you want for effect play it like this... (above)

-|-------------|-------------|------------|------------|----------------------|
-|--------0-1--|--------0-1--|-----1-0-1--|-------0-1--|----------------------|
-|-----2------2|-----0------2|---0-------0|-----2-----2|----------------------|
-|---2---------|---2---------|------------|---2--------|----------------------|
-|-0-----------|-3-----------|------------|-0----------|----------------------|
-|-------------|-------------|-3----------|------------|----------------------|
   Verse: (above)                                       Then play: (below)

-|------------|------------|-------------|------------|-----------------------|
-|-------0-1--|-------0-1--|------1-0-1--|-------0-1--|-----------------------|
-|-----2-----2|-----0-----0|----0-------0|-----2-----2|-----------------------|
-|---2--------|---2--------|-------------|---0--------|-----------------------|
-|-0----------|-3----------|-------------|------------|-----------------------|
-|------------|------------|-3-----------|-2----------|-----------------------|


-|---------------------------------------------5------------------------------|
-|-8br-8p5---5h8-*--8b-8-5---5---------------5---5h8p5-6----------------------|
-|---------8---------------8---7h8p7h5-5h7h8-------------8-8p7p5-8p5p7-5h7h8--|
-|----------------------------------------------------------------------------|
-|----------------------------------------------------------------------------|
-|----------------------------------------------------------------------------|
   SOLO!!! Woohoo!

-|---------------|--------|--------------------------------------------------|
-|-5-------------|--------|-----20-20-------------20-17-----------20b-20-20b-|
-|---8p7p5-------|--------|-19b--------19b-19-19b-------19b-19-19b-----------|
-|---------7p5h7v|--------|--------------------------------------------------|
-|---------------|5v-3-5--|--------------------------------------------------|
-|---------------|--------|--------------------------------------------------|
   Solo cont.

-|------------|------------|------------|------------|------------------|-----|
-|------------|------------|------------|------------|------------------|-----|
-|------0-----|------0-----|-------0----|-------0----|-----0---0-----0--|-----|
-|----4---4---|----4---4---|-----4---4--|-----4---4--|---0-------4-----3|-----|
-|--7-------7-|--7-------7-|---7-------7|---7-------7|------------------|-----|
-|0-----------|0-----------|-0----------|-0----------|3------2-----1----|-----|
  Bridge!!! Woo!! ... suppose to be before the solo :)                    X3

-|---------------------------------------|------------------------------------|
-|---------------------------------------|------------------------------------|
-|---------0---0-----0-----0----0--------|------------------------------------|
-|-------4---------2-----2----2-----0----|------------------------------------|
-|-5-/-7-----5---4-----3----2------------|------------------------------------|
-|--------------------------------3---2-1|------------------------------------|
  After playing 3 times then end it with this: (above)

-|--------------|----------------|------------------------------------|-------|
-|--------------|----------------|------------------------------------|-------|
-|--------------|---------3-3-3-3|------------------------------------|-------|
-|---------0-1-2|----------------|------------------------------------|-------|
-|-2-2-2-2-0-1-2|-2-2-2-2-1-1-1-1|------------------------------------|-------|
-|-0-0-0-3------|-0-0-0-3--------|-0--8b--0--6b--0--8b--0--6b--0-0-0-0|-------|
   Heavy riff!                     Then later on it goes: (above)       X
Tap to rate this tab
# A B C D E F G H I J K L M N O P Q R S T U V W X Y Z