Song name
# A B C D E F G H I J K L M N O P Q R S T U V W X Y Z

Pantera - Mouth For War tab

E  :------------------|------------------|------------------|
B  :------------------|------------------|------------------|
G  :----------4-------|--------4---4---4-|----------4-------|
D  :----------4-------|--------4---4---4-|----------4-------|
A  :0-1-2-2-2-2-2-2-2-|0-1-2-2-2-2-2-2-2-|0-1-2-2-2-2-2-2-2-|
E  :------------------|------------------|------------------|

E  :------------------|------------------|------------------|
B  :------------------|------------------|------------------|
G  :--------4---4---4-|----------4-------|--------4---4---4-|
D  :--------4---4---4-|----------4-------|--------4---4---4-|
A  :0-1-2-2-2-2-2-2-2-|0-1-2-2-2-2-2-2-2-|0-1-2-2-2-2-2-2-2-|
E  :------------------|------------------|------------------|

E  :------------------|------------------|-----------------|
B  :------------------|------------------|-----------------|
G  :----------4-------|--------4---4---4-|-----------------|
D  :----------4-------|--------4---4---4-|2---5-/9---5-----|
A  :0-1-2-2-2-2-2-2-2-|0-1-2-2-2-2-2-2-2-|2---5-/9---5-----|
E  :------------------|------------------|0---3-/7-0-3---0-|

E  :------------------|-----------------|------------------|
B  :------------------|-----------------|------------------|
G  :------------------|-----------------|------------------|
D  :5-/9---5-/9---5---|2---5-/9---5-----|5-/9---5-/9---5---|
A  :5-/9---5-/9---5---|2---5-/9---5-----|5-/9---5-/9---5---|
E  :3-/7-0-3-/7-0-3---|0---3-/7-0-3---0-|3-/7-0-3-/7-0-3---|

E  :-----------------|------------------|-----------------|
B  :-----------------|------------------|-----------------|
G  :-----------------|------------------|-----------------|
D  :2---5-/9---5-----|5-/9---5-/9---5---|2---5-/9---5-----|
A  :2---5-/9---5-----|5-/9---5-/9---5---|2---5-/9---5-----|
E  :0---3-/7-0-3---0-|3-/7-0-3-/7-0-3---|0---3-/7-0-3---0-|

E  :------------------------|-----------------|----------------|
B  :-----------<4>-<4>-<4>--|-----------------|----------------|
G  :-----------<4>-<4>-<4>--|-----------------|----------------|
D  :------------------------|2-----8---9-10---|7-8---5---5-7---|
A  :------------------------|2-----8---9-10---|7-8---5---5-7---|
E  :19\---------------------|0---0-6-0-7--8-0-|5-6-0-3-0-3-5-0-|

E  :-----------------|----------------------|-----------------|
B  :-----------------|----------<4>-<4>-<4>-|-----------------|
G  :-----------------|----------<4>-<4>-<4>-|-----------------|
D  :4-5---8---9-10---|7-8---5---------------|2-----8---9-10---|
A  :4-5---8---9-10---|7-8---5---------------|2-----8---9-10---|
E  :2-3-0-6-0-7--8-0-|5-6-0-3-0-------------|0---0-6-0-7--8-0-|

E  :----------------|-----------------|--------------------|
B  :----------------|-----------------|----------<4>-<4>---|
G  :----------------|-----------------|----------<4>-<4>---|
D  :7-8---5---5-7---|4-5---8---9-10---|7-8---5-------------|
A  :7-8---5---5-7---|4-5---8---9-10---|7-8---5-------------|
E  :5-6-0-3-0-3-5-0-|2-3-0-6-0-7--8-0-|5-6-0-3-0-----------|

E  :-----------------|----------------|-----------------|
B  :-----------------|----------------|-----------------|
G  :-----------------|----------------|-----------------|
D  :2-----8---9-10---|7-8---5---5-7---|4-5---8---9-10---|
A  :2-----8---9-10---|7-8---5---5-7---|4-5---8---9-10---|
E  :0---0-6-0-7--8-0-|5-6-0-3-0-3-5-0-|2-3-0-6-0-7--8-0-|

E  :----------------------|-----------------|----------------|
B  :----------<4>-<4>-<4>-|-----------------|----------------|
G  :----------<4>-<4>-<4>-|-----------------|----------------|
D  :7-8---5---------------|2-----8---9-10---|7-8---5---5-7---|
A  :7-8---5---------------|2-----8---9-10---|7-8---5---5-7---|
E  :5-6-0-3-0-------------|0---0-6-0-7--8-0-|5-6-0-3-0-3-5-0-|

E  :-----------------|----------------------|-----------------|
B  :-----------------|----------<4>-<4>-<4>-|-----------------|
G  :-----------------|----------<4>-<4>-<4>-|-----------------|
D  :4-5---8---9-10---|7-8---5---------------|2-----8---9-10---|
A  :4-5---8---9-10---|7-8---5---------------|2-----8---9-10---|
E  :2-3-0-6-0-7--8-0-|5-6-0-3-0-------------|0---0-6-0-7--8-0-|

E  :----------------|-----------------|----------------------|
B  :----------------|-----------------|----------<4>-<4>-<4>-|
G  :----------------|-----------------|----------<4>-<4>-<4>-|
D  :7-8---5---5-7---|4-5---8---9-10---|7-8---5---------------|
A  :7-8---5---5-7---|4-5---8---9-10---|7-8---5---------------|
E  :5-6-0-3-0-3-5-0-|2-3-0-6-0-7--8-0-|5-6-0-3-0-------------|

E  :-----------------|----------------|-----------------|
B  :-----------------|----------------|-----------------|
G  :-----------------|----------------|-----------------|
D  :2-----8---9-10---|7-8---5---5-7---|4-5---8---9-10---|
A  :2-----8---9-10---|7-8---5---5-7---|4-5---8---9-10---|
E  :0---0-6-0-7--8-0-|5-6-0-3-0-3-5-0-|2-3-0-6-0-7--8-0-|

E  :----------------------|------------------|------------------|
B  :----------<4>-<4>-<4>-|------------------|------------------|
G  :----------<4>-<4>-<4>-|----------4-------|--------4---4---4-|
D  :7-8---5---------------|----------4-------|--------4---4---4-|
A  :7-8---5---------------|0-1-2-2-2-2-2-2-2-|0-1-2-2-2-2-2-2-2-|
E  :5-6-0-3-0-------------|------------------|------------------|

E  :------------------|------------------|------------------|
B  :------------------|------------------|------------------|
G  :----------4-------|--------4---4---4-|----------4-------|
D  :----------4-------|--------4---4---4-|----------4-------|
A  :0-1-2-2-2-2-2-2-2-|0-1-2-2-2-2-2-2-2-|0-1-2-2-2-2-2-2-2-|
E  :------------------|------------------|------------------|

E  :------------------|------------------|------------------|
B  :------------------|------------------|------------------|
G  :--------4---4---4-|----------4-------|--------4---4---4-|
D  :--------4---4---4-|----------4-------|--------4---4---4-|
A  :0-1-2-2-2-2-2-2-2-|0-1-2-2-2-2-2-2-2-|0-1-2-2-2-2-2-2-2-|
E  :------------------|------------------|------------------|

E  :-----------------|------------------|-----------------|
B  :-----------------|------------------|-----------------|
G  :-----------------|------------------|-----------------|
D  :2---5-/9---5-----|5-/9---5-/9---5---|2---5-/9---5-----|
A  :2---5-/9---5-----|5-/9---5-/9---5---|2---5-/9---5-----|
E  :0---3-/7-0-3---0-|3-/7-0-3-/7-0-3---|0---3-/7-0-3---0-|

E  :------------------|-----------------|------------------|
B  :------------------|-----------------|------------------|
G  :------------------|-----------------|------------------|
D  :5-/9---5-/9---5---|2---5-/9---5-----|5-/9---5-/9---5---|
A  :5-/9---5-/9---5---|2---5-/9---5-----|5-/9---5-/9---5---|
E  :3-/7-0-3-/7-0-3---|0---3-/7-0-3---0-|3-/7-0-3-/7-0-3---|

E  :-----------------|-----------------------|-----------------|
B  :-----------------|----------<4>-<4>-<4>--|-----------------|
G  :-----------------|----------<4>-<4>-<4>--|-----------------|
D  :2---5-/9---5-----|-----------------------|2-----8---9-10---|
A  :2---5-/9---5-----|-----------------------|2-----8---9-10---|
E  :0---3-/7-0-3---0-|7\---------------------|0---0-6-0-7--8-0-|

E  :----------------|-----------------|----------------------|
B  :----------------|-----------------|----------<4>-<4>-<4>-|
G  :----------------|-----------------|----------<4>-<4>-<4>-|
D  :7-8---5---5-7---|4-5---8---9-10---|7-8---5---------------|
A  :7-8---5---5-7---|4-5---8---9-10---|7-8---5---------------|
E  :5-6-0-3-0-3-5-0-|2-3-0-6-0-7--8-0-|5-6-0-3-0-------------|

E  :-----------------|----------------|-----------------|
B  :-----------------|----------------|-----------------|
G  :-----------------|----------------|-----------------|
D  :2-----8---9-10---|7-8---5---5-7---|4-5---8---9-10---|
A  :2-----8---9-10---|7-8---5---5-7---|4-5---8---9-10---|
E  :0---0-6-0-7--8-0-|5-6-0-3-0-3-5-0-|2-3-0-6-0-7--8-0-|

E  :--------------------|-----------------|----------------|
B  :----------<4>-<4>---|-----------------|----------------|
G  :----------<4>-<4>---|-----------------|----------------|
D  :7-8---5-------------|2-----8---9-10---|7-8---5---5-7---|
A  :7-8---5-------------|2-----8---9-10---|7-8---5---5-7---|
E  :5-6-0-3-0-----------|0---0-6-0-7--8-0-|5-6-0-3-0-3-5-0-|

E  :-----------------|----------------------|-----------------|
B  :-----------------|----------<4>-<4>-<4>-|-----------------|
G  :-----------------|----------<4>-<4>-<4>-|-----------------|
D  :4-5---8---9-10---|7-8---5---------------|2-----8---9-10---|
A  :4-5---8---9-10---|7-8---5---------------|2-----8---9-10---|
E  :2-3-0-6-0-7--8-0-|5-6-0-3-0-------------|0---0-6-0-7--8-0-|

E  :----------------|-----------------|----------------------|
B  :----------------|-----------------|----------<4>-<4>-<4>-|
G  :----------------|-----------------|----------<4>-<4>-<4>-|
D  :7-8---5---5-7---|4-5---8---9-10---|7-8---5---------------|
A  :7-8---5---5-7---|4-5---8---9-10---|7-8---5---------------|
E  :5-6-0-3-0-3-5-0-|2-3-0-6-0-7--8-0-|5-6-0-3-0-------------|

E  :-----------------|----------------|-----------------|
B  :-----------------|----------------|-----------------|
G  :-----------------|----------------|-----------------|
D  :2-----8---9-10---|7-8---5---5-7---|4-5---8---9-10---|
A  :2-----8---9-10---|7-8---5---5-7---|4-5---8---9-10---|
E  :0---0-6-0-7--8-0-|5-6-0-3-0-3-5-0-|2-3-0-6-0-7--8-0-|

E  :----------------------|-----------------|----------------|
B  :----------<4>-<4>-<4>-|-----------------|----------------|
G  :----------<4>-<4>-<4>-|-----------------|----------------|
D  :7-8---5---------------|2-----8---9-10---|7-8---5---5-7---|
A  :7-8---5---------------|2-----8---9-10---|7-8---5---5-7---|
E  :5-6-0-3-0-------------|0---0-6-0-7--8-0-|5-6-0-3-0-3-5-0-|

E  :-----------------|----------------------|------------------|
B  :-----------------|----------<4>-<4>-<4>-|------------------|
G  :-----------------|----------<4>-<4>-<4>-|----------4-------|
D  :4-5---8---9-10---|7-8---5---------------|----------4-------|
A  :4-5---8---9-10---|7-8---5---------------|0-1-2-2-2-2-2-2-2-|
E  :2-3-0-6-0-7--8-0-|5-6-0-3-0-------------|------------------|

E  :------------------|------------------|------------------|
B  :------------------|------------------|------------------|
G  :--------4---4---4-|----------4-------|--------4---4---4-|
D  :--------4---4---4-|----------4-------|--------4---4---4-|
A  :0-1-2-2-2-2-2-2-2-|0-1-2-2-2-2-2-2-2-|0-1-2-2-2-2-2-2-2-|
E  :------------------|------------------|------------------|

E  :------------------|------------------|------------------|
B  :------------------|------------------|------------------|
G  :----------4-------|--------4---4---4-|----------4-------|
D  :----------4-------|--------4---4---4-|----------4-------|
A  :0-1-2-2-2-2-2-2-2-|0-1-2-2-2-2-2-2-2-|0-1-2-2-2-2-2-2-2-|
E  :------------------|------------------|------------------|

E  :------------------|-----------------|------------------|
B  :------------------|-----------------|------------------|
G  :--------4---4---4-|-----------------|------------------|
D  :--------4---4---4-|2---5-/9---5-----|5-/9---5-/9---5---|
A  :0-1-2-2-2-2-2-2-2-|2---5-/9---5-----|5-/9---5-/9---5---|
E  :------------------|0---3-/7-0-3---0-|3-/7-0-3-/7-0-3---|

E  :-----------------|------------------|-----------------|
B  :-----------------|------------------|-----------------|
G  :-----------------|------------------|-----------------|
D  :2---5-/9---5-----|5-/9---5-/9---5---|2---5-/9---5-----|
A  :2---5-/9---5-----|5-/9---5-/9---5---|2---5-/9---5-----|
E  :0---3-/7-0-3---0-|3-/7-0-3-/7-0-3---|0---3-/7-0-3---0-|

E  :------------------|-----------------|-----------------|
B  :------------------|-----------------|-----------------|
G  :------------------|-----------------|-----------------|
D  :5-/9---5-/9---5---|2---5-/9---5-----|5-/9---5-----5---|
A  :5-/9---5-/9---5---|2---5-/9---5-----|5-/9---5-----5---|
E  :3-/7-0-3-/7-0-3---|0---3-/7-0-3---0-|3-/7-0-3---0-3---|

Solo

E  :-------------------|-----------------|----------------------|
B  :--------------8-b10|------------8-11-|b13-------13-b15------|
G  :----------7--------|----------7------|----------------------|
D  :5-----------5------|-----------------|----------------------|
A  :-------------------|-----------------|----------------------|
E  :-------------------|-----------------|----------------------|

E  :----------------/6-|--6-6-6-6-----6-|--6---8------15-18-|
B  :11-----------------|----------------|----------16-------|
G  :---12-----------/3-|--3-3-3-3-----3-|--3---5------------|
D  :-------------------|----------------|-------------------|
A  :-------------------|----------------|-------------------|
E  :-------------------|----------------|-------------------|

E  :18-b20------18-b22------|18---------------20|b22----r21-b22----20-b22--|
B  :------------------------|---20--------------|--------------------------|
G  :------------------------|-------------------|--------------------------|
D  :------------------------|-------------------|--------------------------|
A  :------------------------|-------------------|--------------------------|
E  :------------------------|-------------------|--------------------------|

E  :--r21-b22---20-b22----r21-|b22-----22-b24--------|----------------|
B  :--------------------------|--------22-b24--------|----------------|
G  :--------------------------|----------------------|----------------|
D  :--------------------------|----------------------|----------------|
A  :--------------------------|----------------------|----------------|
E  :--------------------------|----------------------|----------------|

E  :-----------------------------------------------|
B  :-----------------------------------------------|
G  :------------------------------------------10-10|
D  :------------------10-10----10-12-13-12-13------|
A  :10-12-13-10-12-13-------13---------------------|
E  :-----------------------------------------------|

E  :-----------------------------------------------|
B  :---------------------11-11-------11-13-15-13-11|
G  :---10-12-14-10-12-14-------12-14---------------|
D  :13---------------------------------------------|
A  :-----------------------------------------------|
E  :-----------------------------------------------|

E  :---10-h13-p10-h15-p10-h13-p10----10-h13-p10-h15-p10-h13-p10|
B  :13----------------------------13---------------------------|
G  :-----------------------------------------------------------|
D  :-----------------------------------------------------------|
A  :-----------------------------------------------------------|
E  :-----------------------------------------------------------|

E  :---10-h13-p10-h15-p10-h13-p10-/20-b21---20-p18-p15|--------------------|
B  :13------------------------------------------------|-18-b20-------------|
G  :--------------------------------------------------|--------------------|
D  :--------------------------------------------------|--------------------|
A  :--------------------------------------------------|--------------------|
E  :--------------------------------------------------|--------------------|


Tap to rate this tab
# A B C D E F G H I J K L M N O P Q R S T U V W X Y Z