Song name
# A B C D E F G H I J K L M N O P Q R S T U V W X Y Z

Pantera - Mouth For War tab

-------------------------------------------------------------------------------
			     MOUTH FOR WAR - PanterA
-------------------------------------------------------------------------------
Tabbed by:me'o
Email:

Tuning:standard
     first bit 3 times
e|--------------------------------------------------------------------------|
B|--------------------------------------------------------------------------|
G|--------------------------------------------------------------------------|
D|------------------4---------------------4----4----4----4------------------|
A|-x0-x1x2-x2-x2-x2-2-x2-x2-x2-x0-x1x2-x2-2-x2-2-x2-2-x2-2------------------|
E|--------------------------------------------------------------------------|
           same as before just different muting
e|---------------------------------------------------------------------------|
B|---------------------------------------------------------------------------|
G|---------------------------------------------------------------------------|
D|----------------4--------------4---4---4---4-------------------------------|
A|-x0-x1x2-x2-2-2-2-2-2-2-0-12-2-2-2-2-2-2-2-2-------------------------------|
E|---------------------------------------------------------------------------|
       then comes a sound ive not quite worked out (might be a slide from b power chord 
but im not sure),
       followed by this bad boy
e|--------------------------------------------------------------------------|
B|--------------------------------------------------------------------------|
G|--------------------------------------------------------------------------|
D|--------------------------------------------------------------------------|
A|----5/9---5----5/9---5/9----5---------------------------------------------|
E|-0--3/7-0-3--0-3/7-0-3/7-0--3---------------------------------------------|
  repeat above but second time the last open e is a double (play thrice}
e|----------------|
B|----------------|
G|----------------|
D|----------------|
A|----5/9---5-----|
E|-0--3/7-0-3--0--|(then that previous unknown sound...gotta be a slide but i cant 
let me know what you think please)

e|-----------------------------------------------------------------------|
B|-----------------------------------------------------------------------|
G|-+-+-+-----------------------------------------------------------------|
D|-+-+-+-----------------------------------------------------------------|
A|-+-+-+-2----8---9,10---7,8---5---5,7---4,5---8---9,10---7---7,8---5----|
E|-+-+-+-0--0-6-0-7,8 -0-5,6-0-3-0-3,5-0-2,3-0-6-0-7,8 -0-5-0-5,6-0-3-0--|(natural 
3rd fret IF you have trouble with them strum nearer the bridge) repeat a few, im arsed 
so listen, theres a break on 3rd or after 2nd.

then repeat again. I have some methods of the solo but im not confident as to share with 
world so ill leave it. and this took ages so ill be back with what I have for after the 
and outro if I get a request for it

************************************

| /   slide up
| \   slide down
| h   hammer-on
| p   pull-off
| ~   vibrato
| +   harmonic
| x   Mute note
| b   Bend
| pb  Pre-bend
| br  Bend release
| pbr Pre-bend release
| brb Bend release bend

************************************
Tap to rate this tab
 
# A B C D E F G H I J K L M N O P Q R S T U V W X Y Z