Song name
# A B C D E F G H I J K L M N O P Q R S T U V W X Y Z

Pantera - Yesterday Dont Mean Shit tab

Tuning is one whole step down

/ slide up
^ bend
\ slide down
* palm mute

Intro (all palm muted)
e--------------------------------------------------|
b--------------------------------------------------|
g--------------------------------------------------|
d--------------------------------------------------|
a--------------------------------------------------|
e--12\--0-0060030---0060030---0060030---001004^0---|


Verse
e--------------------------------------------------|
b--------------------------------------------------|
g--------------------------------------------------|
d--7----7----7-----8----8------8\5-----------------|
a--7----7----7-----8----8------8\5-----------------|
e--5-*555-*555-*5556-*666-*66666\3-----------------|

repeat intro between verses

last verse
e--------------------------------------------------|
b--------------------------------------------------|
g--------------------------------------------------|
d--5----5----5-----3----5------3/5-----------------|
a--5----5----5-----3----5------3/5-----------------|
e--3-*333-*333-*3331-*333-*11111/3-----------------|


chorus
e--------------------------------------------------|
b--------------------------------------------------|
g----7/9--7/9-----------7/9-------------10-10-9----|
d--7-7/9--7/9----5/7----7/9-----7/9-----10-10-9----|
a--7-5/7--5/7----5/7----5/7-----7/9-----8--8--7----|
e--5----------0--3/5--0------0--5/7--0-------------|


NOOOO REWINDING TIME
e--------------------------------------------------|
b--------------------------------------------------|
g--5/6-----3/4-----5/6-----3/4-----7-7-4-----------|
d--5/6-----3/4-----5/6-----3/4-----7-7-4-----------|
a--3/4-----1/2-----3/4-----1/2-----5-5-6-----------|
e--3/4--0--1/2--0--3/4--0--1/2--0--5-5-6-----------|

e--------------------------------------------------|
b--------------------------------------------------|
g---------7/9-----------7/9-------------10-10-9----|
d---------7/9----5/7----7/9-----7/9-----10-10-9----|
a---------5/7----5/7----5/7-----7/9-----8--8--7----|
e-------------0--3/5--0------0--5/7--0-------------|

e--------------------------------------------------|
b--------------------------------------------------|
g---------7/9-----------7/9------------------------|
d---------7/9----5/7----7/9------------------------|
a---------5/7----5/7----5/7------------------------|
e-------0-----0--3/5--0----------------------------|

back to intro/verse


bridge

e--------------------------------------------------|
b--------------------------------------------------|
g--------------------------------------------------|
d--------------------------------------------------|
a-----------------------------------------4--------|
e--12^-000-11^-0-10^-0-9^-00-880-770-660--5---3^---|

amazing solo im not good enough to figure out

chorus

intro

outro

e--------------------------------------------------|
b--------------------------------------------------|
g--------------------------------------------------|
d--------------------------------------------------|
a--------------------------------------------------|
e--12^-0-11^-10^-9^-0-8^-7^-6^-5^-4^---------------|

e--------------------------------------------------|
b--------------------------------------------------|
g--------------------------------------------------|
d--10---9---8---7---6---5---4---2------------------|
a--10---9---8---7---6---5---4---2------------------|
e--8--0-7-0-6-0-5-0-4-0-3-0-2-0-0------------------|
Tap to rate this tab
 
# A B C D E F G H I J K L M N O P Q R S T U V W X Y Z