Song name
# A B C D E F G H I J K L M N O P Q R S T U V W X Y Z

Pantera - Mission Impossible Theme tab

iff:1
---------------------------|
---------------------------|
---------------------------| 2x
---------------------------|
-------1--3----------------|
-3--3----------3--3--1--2--|

                                                                             then
-3--3--6--8---3--3--1--2---|
---------------------------|
---------------------------|
---------------------------|
---------------------------|
-3--3--6--8---3--3--1--2---|


riff:2a
------------------------------------------|
------------------------------------------|
------------------------------------------|
------------------------------------------|
---------------1--3-----------------------|
-3--3--3--3--3--------3--3--3--3--3-1--2--|


riff:2b
-12--9------12--9------12--9--------------4--0--7---3--0--6---3--0--5---3--5-|
--------9-------------------------5--7---------------------------------------|
------------------12---------11----------------------------------------------|
-----------------------------------------------------------------------------|
-----------------------------------------------------------------------------|
-----------------------------------------------------------------------------|


riff:2c
-----------------------------------------------------------------------------|
-----------------------------------------------------------------------------|
-----------------------------------------------------------------------------|
----------------------------------------------------1--3---------------------|
---------------1--2-------------1--2--3--3--3--3--3-------3--3--3--3--3-1--2-|
-3--3--3--3--3-------3--3--3--3----------------------------------------------|


riff:3a
-----------------------------------------|
-----------------------------------------|
-----------------------------------------|
---------------1--3----------------------|
-3--3--3--3--3-------3--3--3--3--3-1--2--|
-----------------------------------------|


riff:3b
-17--14---------17--14---------17--14-----------------|
---------14-----------------------------------14--16--|
------------------------17-------------16-------------|
------------------------------------------------------|
------------------------------------------------------|
------------------------------------------------------|


-8----12-----8----11-----8------10------8--10---------|
---10----------10-----------10------------------------|
------------------------------------------------------|
------------------------------------------------------|
------------------------------------------------------|
------------------------------------------------------|


i'll let you take from there.
Tap to rate this tab
 
# A B C D E F G H I J K L M N O P Q R S T U V W X Y Z