Song name
# A B C D E F G H I J K L M N O P Q R S T U V W X Y Z

Pantera - Heavy Metal Rules tab

1|--------------------------------------------------|
2|--------------------------------------------------|
3|--------------------------------------------------|
4|--9-9-7-9------------------------9-9-7-9--12-7----|
5|--7-7-5-7---9-10-9-10-9-10-9-5---7-7-5-7--10-5----|
6|------------7-8--7-8--7-8--7-3--------------------|


1|--------------------------------------------------|
2|--------------------------------------------------|
3|--------------------------------------------------|
4|--9-9-7-9------------------------9-9-7-9--12-14---|
5|--7-7-5-7---9-10-9-10-9-10-9-5---7-7-5-7--10-12---|
6|------------7-8--7-8--7-8--7-3--------------------|


    "9-10-9-10-9-10-9-5--|
The  7-8--7-8--7-8--7-3--|  part are NOT slides, if you listen carefully to the song you 
tell they need to be strummed.
If you have any questions or comments/suggestions, contact me at darkv3ng3ance@yahoo.com
Tap to rate this tab
# A B C D E F G H I J K L M N O P Q R S T U V W X Y Z