Song name
# A B C D E F G H I J K L M N O P Q R S T U V W X Y Z

Pantera - Walk tab

                                    Walk
                            Vulgar display of power
tuning - D G C F A D
I am sure this tab is 100% correct, you can see in this video
http://www.youtube.com/watch?v=ro4WPvCDBhQ

*on the first bend switch to neck pickup        
            ~~  |---3---||-----3------| |---3--| |-----3------|  |--3--|     
D|---/|---/|-----------------------------12-----------------------12---|
A|-15-v-15-v-----12----12-------------------15^12--------------------15|
F|-14---------------15----15^14^12^14^15----------15^14^12^14^15-------|
C|---------------------------------------------------------------------|
G|---------------------------------------------------------------------|
D|---------------------------------------------------------------------|

 |-3-||---3---|   /|                     |---3---|   |---3---|
D|--------------14-v---------12-14---/|--12^16^12---/|-12---/|---------|
A|^12------------------------------15-v-----------15-v----15-v---------|
F|-----15^14^12--------------------------------------------------------|
C|---------------------------------------------------------------------|
G|---------------------------------------------------------------------|
D|---------------------------------------------------------------------|

 |---------------3------------||--------------3-------------||----3----|
D|12-16^12--12-16^12-16^12---12----------------------------------------|
A|--------15---------------15--15^12-15^12-12--------------------------|
F|------------------------------------------15-15^14^12--14--12^13^12--|
C|-----------------------------------------------------14--14--------14|
G|---------------------------------------------------------------------|
D|---------------------------------------------------------------------|

          ~~~      ~~~~     ~~~   ~~~~       ~~~~~
D|---------------------------------------------------------------------|
A|-----------------------------------------/|--------------------------|
F|--12--13----12^13----12^13----13----12-13-V--------------------------|
C|---------------------------------------------------------------------|
G|---------------------------------------------------------------------|
D|---------------------------------------------------------------------|

                   /|                  |--3--| |--3--|           P.h
D|--/15--17--18--19-V------/|---------8^9^8^5--------------------------|
A|-----------------------\5-V-----------------7^8^7^5----------/|-/|---|
F|-----------------------\5---------------------------6^7^6^5--7V-7V^5-|
C|-----------------------------7--5-7----------------------------------|
G|---------------------------------------------------------------------|
D|---------------------------------------------------------------------|

        T   T   T   T      ~~
D|----------------------------------------------------------------/|---|
A|-------------------------------10---9----10---9----10--10--10--10-V--|
F|---------2/14----2/14-14---/8^9--7^8--8^9--7^8--8^9--9---9---9-------|
C|-----2/14----2/14----------------------------------------------------|
G|---------------------------------------------------------------------|
D|---------------------------------------------------------------------|
         
                                                 /|~~~        /|--\
D|-------10------13------16------18------22----22-V---------22-V-------|
A|----/9-----/12-----/15-----/17-----/21----21--------------21---------|
F|-----~~~-------------------------------------------------------------|
C|---------------------------------------------------------------------|
G|------------------------------------------------------------------\--|
D|------------------------------------------------------------------\--|
                                                      *depress with bar
Tap to rate this tab
 
# A B C D E F G H I J K L M N O P Q R S T U V W X Y Z