Song name
# A B C D E F G H I J K L M N O P Q R S T U V W X Y Z

Pantera - Revolution Is My Name tab

Pantera - Revolution Is My Name

2nd Guitar Solo.

D||----------------------------------------------------||
A||----------------------------------------------------||
F||----------------------------------------------------||
C||-----4p2h4~------------------4p2-4/6-7-6-7/9fb~-----||
G||------------4p3h4-1p0h1~----------------------------||
D||-2-2---------------------2-2------------------------||

D||--------------------------------------------------||-------------------||
A||--------------------------------------------------||-------------------||
F||--------------------------------------------------||-----5\4-----------||
C||-----4p2h4~------------------4p2-4/6-7-6-7/9fb~---||-/7~-----5\3-2h3---||
G||------------4p3h4-1p0h1~--------------------------||----------------3~-||
D||-2-2---------------------2-2----------------------||-------------------||

D||---------5-----------8p7p5-5---5-8p7p5-5---5-8p7p5-5-------||
A||--------5-5-8fb-8fhb------8-8fb-------8-8fb-------8-8fb----||
F||---5-7fb---------------------------------------------------||
C||-/7--------------------------------------------------------||
G||-----------------------------------------------------------||
D||-----------------------------------------------------------||
                go from full bend to 1 and 1/2 bend, and gradually release.

D||-5---5---5---5---5----5------------------||---------------------||
A||--8fb-8fb-8fb-8fb-8fb-x-8p5h8p5--5-----5~||---------676-7h8-7~--||
F||-------------------------------8--8p7p5--||----6767-------------||
C||-----------------------------------------||/989-----------------||
G||-----------------------------------------||---------------------||
D||-----------------------------------------||---------------------||

D||-------------------------------------------------------||
A||-7h8p7p6-7p6-6-7p6-7-----------------------------------||
F||------------9-----9-9-7-6-7-6---6----------------------||
C||-------------------------9---9-7-9-7-6-9-7-6-7-6-------||
G||--------------------------------------------9---9-7----||
D||-------------------------------------------------------||
                             ......................... PM all of those.

D||-------------------------||----------------------------||
A||----------------------9~-||-11hb-11~-11~--9--11--9qb---||
F||----------------------9~-||-11fb-11~-11~--9--11--9qb---||
C||---------------9-10-11---||----------------------------||
G||----7-9--10--11----------||----------------------------||
D||-9~----------------------||----------------------------||

D||-12-9---------------15-12---------------18-15---------------18fhb~--18\||
A||-----11-----11-----------14-----14-----------17-----17-----------------||
F||-------12fhb--12fhb--------15fhb--15fhb--------18fhb--18fhb------------||
C||-----------------------------------------------------------------------||
G||-----------------------------------------------------------------------||
D||-----------------------------------------------------------------------||

~ - vibrato
h - hammer-on
p - pull-off
b - bend
hb - half-bend
fb - full bend
qb - quarter bend
fhb - full and a half bemd
fqb - full and a quarter bend
/  - slide up
\ - slide down
Tap to rate this tab
# A B C D E F G H I J K L M N O P Q R S T U V W X Y Z