Song name
# A B C D E F G H I J K L M N O P Q R S T U V W X Y Z

Pantera - No Good Attack The Radical tab

-------------------------------------------------------------------------------
     No Good (Attack The Radical) - Pantera
-------------------------------------------------------------------------------
Tabbed by: HellDio

Tuning: D G C F A D

Intro

||----------------------------------------------------------||
||----------------------------------------------------------||
||----------------------------------------------------------||
||--------------------5-------------------------5-----------||
||--------------5--7----------------------5--7--------------||
||--0--3--5--7----------------0--3--5--7---------------12\--||

||---------------------------------------------------------------------------------------------|
||O--------------------------------------------------------------------------------------------|
||---------------------------------------------------------------------------------------------|
||---------------------------------------------------------------------------------------------|
||O-------------------------------------5h7-5h7------------------------------------------------|
||---0--3--5--3b5--0-----0--3--5--3--0--------------0--3--5--3b5--0-----0--3--5--3--0--5/7--3--|

|---------------------------------------------------------------------------------------------||
|--------------------------------------------------------------------------------------------O||
|---------------------------------------------------------------------------------------------||
|--------------------------------------------5------------------------------------------------||
|-------------------------------------5--7---------------------------------------------------O||
|--0--3--5--3b5--0-----0--3--5--5--7--------------0--3--5--3b5--0-----0--3--5--3--0--5/7--3---||

Verse
    Dive with Tremolo bar
||------------------------------------------------||
||------------------------------------------------||
||------------------------------------------------||
||--2-\------------------------------/x-----------||
||--2--\----------------------------/-x-----------||
||--0---\--------------------------/--x-----------||

                P.M.====================================================
||----------|----------------------------------|--------------------------------------|
||----------|O---------------------------------|-------------------------------------O|
||----------|----------------------------------|--------------------------2-----------|   3 times
||----------|---2-2---2-2---2-2---2-2--3-2-----|--2-2---2-2---2-2---2-2---2------3----|
||----------|O--2-2---2-2---2-2---2-2--1-0-5-3-|--2-2---2-2---2-2---2-2---0------1---O|
||--5/7--3--|---0-0---0-0---0-0---0-0------3-1-|--0-0---0-0---0-0---0-0---0-----------|
                . .   . .   . .   . .  . . . .    . .   . .   . .   . .

   P.M.===================================================
|---------------------------------|-----------------------------------|
|---------------------------------|-----------------------------------|
|---------------------------------|-----------------------------------|
|--2-2---2-2---2-2---2-2--3-2-----|--2-2---2-2---2-2---2-2------------|
|--2-2---2-2---2-2---2-2--1-0-5-3-|--2-2---2-2---2-2---2-2------------|
|--0-0---0-0---0-0---0-0------3-1-|--0-0---0-0---0-0---0-0----5/7--3--|
   . .   . .   . .   . .  . . . .    . .   . .   . .   . .

Pre Chorus

|-----------------------------------------------------------------------|
|-----------------------------------------------------------------------|
|-----------------------------------------------------------------------|
|--7/8---8---7----7-7--7/8---8---7----7-7--7/8---8--7----7--/11-----7---|
|--7/8---8---7----7-7--7/8---8---7----7-7--7/8---8--7----7--/11-----7---|
|--5/6---6---5----5-5--5/6---6---5----5-5--5/6---6--5----5--/9------5---|

|-----------------------------------------------------------------------|
|-----------------------------------------------------------------------|
|-----------------------------------------------------------------------|
|--7/8---8---7----7-7--7/8---8---7----7-7--7/8---8--7-------4------/7---|
|--7/8---8---7----7-7--7/8---8---7----7-7--7/8---8--7-------4------/7---|
|--5/6---6---5----5-5--5/6---6---5----5-5--5/6---6--5-------2------/5---|

|-----------------------------------------------------------------------|
|-----------------------------------------------------------------------|
|-----------------------------------------------------------------------|
|--7/8---8---7----7-7--7/8---8---7----7-7--7/8---8--7----7--/11-----7---|
|--7/8---8---7----7-7--7/8---8---7----7-7--7/8---8--7----7--/11-----7---|
|--5/6---6---5----5-5--5/6---6---5----5-5--5/6---6--5----5--/9------5---|

|----------------------------------------------------------------------|
|----------------------------------------------------------------------|
|----------------------------------------------------------------------|
|--7/8---8---7----7-7--7/8---8---7----7-7--7/8---8--7---7---11-----12--|
|--7/8---8---7----7-7--7/8---8---7----7-7--7/8---8--7---7---11-----12--|
|--5/6---6---5----5-5--5/6---6---5----5-5--5/6---6--5---5---9------10--|

Chorus

||---------------------------------------------------------------------------------------------|
||O--------------------------------------------------------------------------------------------|
||---------------------------------------------------------------------------------------------|
||---------------------------------------------------------------------------------------------|
||O-------------------------------------5h7-5h7------------------------------------------------|
||---0--3--5--3b5--0-----0--3--5--3--0--------------0--3--5--3b5--0-----0--3--5--3--0--5/7--3--|

|---------------------------------------------------------------------------------------------||
|--------------------------------------------------------------------------------------------O||
|---------------------------------------------------------------------------------------------||
|--------------------------------------------5------------------------------------------------||
|-------------------------------------5--7---------------------------------------------------O||
|--0--3--5--3b5--0-----0--3--5--5--7--------------0--3--5--3b5--0-----0--3--5--3--0--5/7--3---||

Verse 2
    Dive with Tremolo bar
||------------------------------------------------||
||------------------------------------------------||
||------------------------------------------------||
||--2-\------------------------------/x-----------||
||--2--\----------------------------/-x-----------||
||--0---\--------------------------/--x-----------||

                P.M.====================================================
||----------|----------------------------------|--------------------------------------|
||----------|O---------------------------------|-------------------------------------O|
||----------|----------------------------------|--------------------------2-----------|   3 times
||----------|---2-2---2-2---2-2---2-2--3-2-----|--2-2---2-2---2-2---2-2---2------3----|
||----------|O--2-2---2-2---2-2---2-2--1-0-5-3-|--2-2---2-2---2-2---2-2---0------1---O|
||--5/7--3--|---0-0---0-0---0-0---0-0------3-1-|--0-0---0-0---0-0---0-0---0-----------|
                . .   . .   . .   . .  . . . .    . .   . .   . .   . .

   P.M.===================================================
|---------------------------------|-----------------------------------|
|---------------------------------|-----------------------------------|
|---------------------------------|-----------------------------------|
|--2-2---2-2---2-2---2-2--3-2-----|--2-2---2-2---2-2---2-2------------|
|--2-2---2-2---2-2---2-2--1-0-5-3-|--2-2---2-2---2-2---2-2------------|
|--0-0---0-0---0-0---0-0------3-1-|--0-0---0-0---0-0---0-0----5/7--3--|
   . .   . .   . .   . .  . . . .    . .   . .   . .   . .

Pre Chorus

|-----------------------------------------------------------------------|
|-----------------------------------------------------------------------|
|-----------------------------------------------------------------------|
|--7/8---8---7----7-7--7/8---8---7----7-7--7/8---8--7----7--/11-----7---|
|--7/8---8---7----7-7--7/8---8---7----7-7--7/8---8--7----7--/11-----7---|
|--5/6---6---5----5-5--5/6---6---5----5-5--5/6---6--5----5--/9------5---|

|-----------------------------------------------------------------------|
|-----------------------------------------------------------------------|
|-----------------------------------------------------------------------|
|--7/8---8---7----7-7--7/8---8---7----7-7--7/8---8--7-------4------/7---|
|--7/8---8---7----7-7--7/8---8---7----7-7--7/8---8--7-------4------/7---|
|--5/6---6---5----5-5--5/6---6---5----5-5--5/6---6--5-------2------/5---|

|-----------------------------------------------------------------------|
|-----------------------------------------------------------------------|
|-----------------------------------------------------------------------|
|--7/8---8---7----7-7--7/8---8---7----7-7--7/8---8--7----7--/11-----7---|
|--7/8---8---7----7-7--7/8---8---7----7-7--7/8---8--7----7--/11-----7---|
|--5/6---6---5----5-5--5/6---6---5----5-5--5/6---6--5----5--/9------5---|

|----------------------------------------------------------------------|
|----------------------------------------------------------------------|
|----------------------------------------------------------------------|
|--7/8---8---7----7-7--7/8---8---7----7-7--7/8---8--7---7---11-----12--|
|--7/8---8---7----7-7--7/8---8---7----7-7--7/8---8--7---7---11-----12--|
|--5/6---6---5----5-5--5/6---6---5----5-5--5/6---6--5---5---9------10--|

Chorus

||---------------------------------------------------------------------------------------------|
||O--------------------------------------------------------------------------------------------|
||---------------------------------------------------------------------------------------------|
||---------------------------------------------------------------------------------------------|
||O-------------------------------------5h7-5h7------------------------------------------------|
||---0--3--5--3b5--0-----0--3--5--3--0--------------0--3--5--3b5--0-----0--3--5--3--0--5/7--3--|

|---------------------------------------------------------------------------------------------||
|--------------------------------------------------------------------------------------------O||
|---------------------------------------------------------------------------------------------||
|--------------------------------------------5------------------------------------------------||
|-------------------------------------5--7---------------------------------------------------O||
|--0--3--5--3b5--0-----0--3--5--5--7--------------0--3--5--3b5--0-----0--3--5--3--0--5/7--3---||

Solo

||-------------------------------------------------------------------||
||-------------------------------------------------------------------||
||-------------------------------------------------------------------||
||--------------------5-------------------------5-------------x\-----||
||--------------5--7----------------------5--7----------------x-\----||
||--0--3--5--7----------------0--3--5--7----------------------x--\---||

Sorry, i don't have the solo yet
                                                                          
Break

   P.M.===================       P.M.===================
|----------------------------------------------------------------|
|----------------------------------------------------------------|
|----------------------------------------------------------------|
|----------------------------------------------------------------|
|--2-3-3-3-3-3-3-3-3-3-3-3--5/6---2-3-3-3-3-3-3-3-3-3-3-3--5/6---|
|--0-1-1-1-1-1-1-1-1-1-1-1--3/4---0-1-1-1-1-1-1-1-1-1-1-1--3/4---|

   P.M====================            P.M.  P.M.
|------------------------------------------------|
|------------------------------------------------|
|------------------------------------------------|
|------------------------------------------------|
|--2-3-3-3-3-3-3-3-3-3-3-3--5/6-------3-3---3-3--|
|--0-1-1-1-1-1-1-1-1-1-1-1--3/4-------1-1---1-1--|

Chorus

||---------------------------------------------------------------------------------------------|
||O--------------------------------------------------------------------------------------------|
||---------------------------------------------------------------------------------------------|
||---------------------------------------------------------------------------------------------|
||O-------------------------------------5h7-5h7------------------------------------------------|
||---0--3--5--3b5--0-----0--3--5--3--0--------------0--3--5--3b5--0-----0--3--5--3--0--5/7--3--|

|---------------------------------------------------------------------------------------------||
|--------------------------------------------------------------------------------------------O||
|---------------------------------------------------------------------------------------------||
|--------------------------------------------5------------------------------------------------||
|-------------------------------------5--7---------------------------------------------------O||
|--0--3--5--3b5--0-----0--3--5--5--7--------------0--3--5--3b5--0-----0--3--5--3--0--5/7--3---||

Outro

   P.M.===================       P.M.===================
|----------------------------------------------------------------|
|----------------------------------------------------------------|
|----------------------------------------------------------------|
|----------------------------------------------------------------|
|--2-3-3-3-3-3-3-3-3-3-3-3--5/6---2-3-3-3-3-3-3-3-3-3-3-3--5/6---|
|--0-1-1-1-1-1-1-1-1-1-1-1--3/4---0-1-1-1-1-1-1-1-1-1-1-1--3/4---|

   P.M====================            P.M.  P.M.
|------------------------------------------------|
|------------------------------------------------|
|------------------------------------------------|
|------------------------------------------------|
|--2-3-3-3-3-3-3-3-3-3-3-3--5/6-------3-3---3-3--|
|--0-1-1-1-1-1-1-1-1-1-1-1--3/4-------1-1---1-1--|
Tap to rate this tab
# A B C D E F G H I J K L M N O P Q R S T U V W X Y Z